Oops, an error
Loading. Please wait.

Imagínate Tab

version 1
version 1

Whole song

Interactive

97 views 1 this week
1 commentread comment
1 2 3 4 5
3 more votes to show rating
add to favorites
launch autoscroll
font size
0
reset
how to read this tab
guitar tuner
Autoscroll
slow
fast
+/-
esc
set tempo
stop
Esta transcripción es la primera que mando al átame
es la version correcta no creo tener errores pero uno nunca sabe.

Intro: riff1 y riff 2

Riff 1                                                                                (Rasgueado)
 F     E        Am       C       D      Em       F      E      Dm                F/D     G
|-------------------0-|-------------------0--0--|-----------------1-|--------------------3-3-3|
|-----1-----0-------1-|-------1------3----0--0--|----1------0-----3-|---------0----3-----3-3-3|
|---2-----1---------2-|-----0------2------0--0--|--2------1-------2-|--------0----2------0-0-0|
|-------------------2-|---------0---------2--2--|--------------0----|--------------------0-0-0|
|---------------0-----|2-3----------------2--2--|-------------------|0-------------------2-2-2|
|1-----0--------------|----------------0--0--0--|1------0-----------|---3--1-----2----3--3-3-3|


Riff 2

|---------------0-----|-----------------0------|-------------------0-|0--0--0--0--0---3--3-3-3|
|----1---3----5----5--|----6----------3----3---|------8----------5---|5--6--5--3--1------3-3-3|
|--0---0----0----0----|--0--0---0---0----0-----|----0--0---0---0-----|-------------------0-0-0|
|---------------------|------------------------|---------------------|-------------------0-0-0|
|3---5----7-----------|8------7---5------------|10-------8---7-------|7--8--7--5--3------2-2-2|
|---------------------|------------------------|---------------------|----------------0--3-3-3|
                                                                      el riff 2 se toca 2 veces


Riff 3
|----------------0----|------------------0----|--------------------0|---------------------3-3-3|
|----1----1----1----1-|----3-----------3----3-|----0-------------1--|---------------------3-3-3|
|--2----0----0----0---|--2---2---0---0----0---|--0---0----0----0----|---------------------0-0-0|
|---------------------|0----------------------|2--------0-----------|---0-----------------0-0-0|
|0----2----3----------|--------3---2----------|--------------3------|-3----3--2--0--------2-2-2|
|---------------------|-----------------------|---------------------|----------------3----3-3-3|

(Riff 3) Imaginate
que desde muy niño
te llevaba flores
te daba mi abrigo.

(Riff 3) Imagínate
que soy el amigo
de tu mismo grado
que lleva tus libros.

Riff 3 sin cantar

(Riff 2) imagínate
que soy de tu calle
que siempre pase
por donde miraste.

(Riff 2) Imagínate
que hasta mi perro
me busca en tu puerta
cuando me le pierdo.

Riff 2 no caanta.

(Riff 3) imagínate
que eres mi dama
MI ultimo sueño
mi mas roja flama.

(Riff 3)imagínate
que somos nosotros
tu y yo para siempre                                 D|-0--------|
que no eres de otro. (aqui se pone lento con el bajo A|3-3-2-0---|luego aceleras de nuevo)
                                                     E|---------3|


Riff 2 termina lento.

      *****
      *Fin*
      *****

Gracias a mi primer profesor de guitarra Silverio y al segundo Elkin, por hacer de mi mejor
persona a través de ese maravilloso instrumento y gracias a ti guitarra por existir.

Espero que disfruten de esta canción... es buenísima y va dedicada a una mujer muy especial
ANA ISABEL M.M.

Si tienen reclamos, concejos, comentarios o algo escriban, en el encabezado esta mi mail pero
por si algo es albeckh@
Suggest correction
Give kudos to tab author, rate the tab!
1 2 3 4 5
comments
print report bad tab
1 comment total.
0 reply
nico.maiello.7 10 Aug 31, 2016 11:45 AM

Las estrofas 3 y 4 van con el Riff de la intro, no con el 2. Saludos

guest
You may want to rate the tab now too:
select rating
Wanna post a correction for this tab? Suggest correction