Oops, an error
Loading. Please wait.

Imagínate Tab

version 2
version 2

Whole song

Interactive

32 views 1 this week
no commentswrite comment
1 2 3 4 5
3 more votes to show rating
add to favorites
launch autoscroll
font size
0
reset
how to read this tab
guitar tuner
Autoscroll
slow
fast
+/-
esc
set tempo
stop
Help us to improve Ultimate-Guitar.com Take our survey!
×
VERSION COMPLETA PARA 1 GUITARRA -AFINACION ESTANDAR-

------------------------------------------------------------------
 RIFF ?1? (INTRO y VERSOS 3 y 4)  FA·MI·Lam· SIm(V-2)·DO·RE·MI
                                  FA·DO·REm(V-0 VI-3)FA·RE/FA#·SOL
------------------------------------------------------------------
                             RE/FA# =D/F# = 200232 Sim= Bm= 224432

                                         rasgueo
 F       E      Am      Bm  C  D   E     ^ v ^
----(1)|----(0)|
--(2)--|--(1)--|-----2-|-:--:--:-|---1---1-1-1-|
-------|-------|---2---|-:--:-[0-|------(0)----|
-------|-------|[0-----|[2-[3----|-------------|
[1-----|[0-----|-------|---------|-0-----------|


 F       C      Dm *p ^     F      D/F#  G  rp*   v ^x
-1-----|-0-----|----1-1-----|------|-----|------3-3-3-|
-----1-|-----1-|-3--3-3-----|------|-----|-----3--3-3-|
---2---|---0---|----2-2-----|------|-----|----4---4-4-|
-------|-------|-0--0-------|----3-|---0-|---5----5---|
-------|-------|--------0---|--3---|-0---|--5---------|
-1-----|-0-----|----------3-1------2-----3**----------|

Para los versos 3 y 4 es prácticamente idéntico, solo varía
ligeramente el inicio :

F       E
-1---1-|-0---0-|
-------|-------|
---2---|---1---|
-------|-------|
-------|-------|
-1-----|-0-----|
 Iiima   gína    te, que soy de tu calle..etc.

?------------------------------------------------------------------
RIFF  ?2?  -INTERLUDIO-             DO·REm·DO·FA·MIm·REm·SOL·FA·DO
                                                 FA·MIm·REm·DO·SOL
------------------------------------------------------------------


Pareciera ser con dos guitarras aunque no es muy seguro (¿ una con
agudo más bajo, arpegios cortos la otra? )De todos modos, adapté
para guitarra solista de forma que suene lo más parecido.
*-* = suena mejor si se puntea con dedos diferentes


[Tocar dos veces antes de verso 1]

C Dm C   *-*      F  Em Dm             G      F C
-----0---0-0--0-|-1---1-0-------0----|-3----3-1-0----0-0---0-
-1-3-:----------|-------:-3---3----3-|-----------------------
---:-:-0----0---|---0---2-:-0----0---|---(0)-------0-----0---
---0-2----------|-3-------0----------|-5------3-2----------2-
-3--------------|--------------------|-----------------------
----------------|--------------------|-----------------------

F.Em.Dm.C.G  rp*   v ^x
-1-0-----|------3-3-3-
-----3-1-0-----3--3-3-
---------|----4---4-4-
-3-2-0---|---5----5---
-------3-|--5---------
---------3------------

------------------------------------------------------------------
RIFF ?3?  [x2 en versos 1,2 5 y 6]     LAm·SI/SOL·DO·REm·DO·SI/SOL
                                             SOL·FA·DO·F·Em·Dm·C·G
------------------------------------------------------------------
                                                      G/B : x1x03x

Am      G/B       C               Dm       C G/B
-------|--------|-0---0-0---0-|-1---1---0-------0-----
-1---1-|----3---|-------------|---------:-3---3-----3-
-------|------0-|---0-----0---|---0---0-:-:-0-----0---
---2---|--------|-------------|-0-------:-:-----------
-0-----|-2------|-3-----------|---------3-2-----------
-------|--------|-------------|-----------------------
  Iiima  gína    te...     que desdemuy niño..    te

  G      F C             F·Em·Dm·C·G  rp*   v ^x
|-3---3--1-0----0-0---0-|-1-0-----|------3-3-3-
|-----------------------|-----3-1-0-----3--3-3-
|---0---------0-----0---|-----:-:-|----4---4-4-
|-2------0--------------|-0---:-:-|---5----5---
|----------3------------|---3-2-0-|--5---------
|-----------------------|---------3------------
llevabaflores         te.D. MI Abrigo ...     V1
                        q.l. tus libros ...   V2
                        mi más roja flama ... V5
                        que no eres de otro.  V6

>> Luego del verso 2 sigue el RIFF 2 como interludio
>> Versos 3 y 4 con RIFF 1
>> RIFF 2 -INTERLUDIO-
>> Verso 4 con RIFF 3
>> Verso 5 con RIFF 3, que termina así:

 F·Em·Dm·C·G     rp*   v ^
|-1-0---------|------3-3-3-
|-----3-1-3-1-0-----3--3-3-
|-----:-:-----|----4---4-4-
|-0---:-:-----|---5----5---
|---3-2-0-----|--5---------
|-------------3------------

>> RIFF 2, QUE FINALIZA IGUAL QUE EL ÚLTIMO VERSO. --THE END.--
Suggest correction
Give kudos to tab author, rate the tab!
1 2 3 4 5
comments
print report bad tab
guest
You may want to rate the tab now too:
select rating
Wanna post a correction for this tab? Suggest correction