Oops, an error
Loading. Please wait.

Judith Tab

40 views 1 this week
no commentswrite comment
1 2 3 4 5
3 more votes to show rating
add to favorites
launch autoscroll
font size
0
reset
how to read this tab
guitar tuner
×
Best way to learn
"Judith"
Autoscroll
slow
fast
+/-
esc
set tempo
stop
No existe otro adjetivo para esta canciòn del maestro Silvio que excelente;
ojalà les guste esta tablatura bàsica que mando, y recuerden que para
tocarla es necesario poner el capo en el primer traste.
Este pequeño trabajo se lo quiero dedicar a la mujer que por màs de dos
años ha compartido conmigo mucho màs que sus sueños y sus estrellas. Ana
Lilia,sabes que en ocasiones no soy como quisieras que fuera, pero
recuerda siempre que juntos podemos encontrar los idiomas perfectos para
hablar y sentir el amor...

  A                                      G
E|--0--0------------0--0----------------|--3--3--3--3--3-----------------|
B|-----3h2--2--3h2--2--3h2--2--3--2-----|--3--------3--3-----3--3-----3--|
G|-----2------------2--2-------------2--|--0--------0--0-----------0-----|
D|--------------------------------------|--0--------------0--------------|
A|--------------------------------------|--2-----------------------------|
E|--------------------------------------|--3-----------------------------|

  D                                C                 E
E|-----2--2h3--2--2--2h3--2h3--2--|--0--0--0-----0--|--0-----------------|
B|-------------3--3---------------|--1--------1-----|--0-----0--2--3--3--|
G|-------------2--2---------------|--0--------------|--1--1--------------|
D|--0-----------------------------|--2--------------|--2-----------------|
A|--------------------------------|--3--------------|--------------------|
E|--------------------------------|-----------------|--------------------|

  A
E|------------------0-----------------------------------------|
B|--3h2--2--3h2--2--2--2--3--2--2h3--3--3h2--2--3h2--2--3--2--|
G|------------------2-----------------------------------------|
D|------------------------------------------------------------|
A|------------------------------------------------------------|
E|------------------------------------------------------------|
                                                             No

  A
E|--------------0--------------0--------------0--------------0--|
B|-----2-----2--------2-----2--------2-----2--------2-----2-----|
G|--------2--------------2--------------2--------------2--------|
D|--2--------------2--------------2--------------2--------------|
A|--------------------------------------------------------------|
E|--------------------------------------------------------------|
  puedo         dejarte de       ver         arañando el

  E
E|--------------0--------------0--------------0--------------0--|
B|-----0-----0--------0-----0--------0-----0--------0-----0-----|
G|--------1--------------1--------------1--------------1--------|
D|--2--------------2--------------2--------------2--------------|
A|--------------------------------------------------------------|
E|--------------------------------------------------------------|
 silencio         con tus ojos,                tratando de

  F#m                              A
E|--------------2--------------2--|--------------0--------------0--|
B|-----2-----2--------2-----2-----|-----2-----2--------2-----2-----|
G|--------2--------------2--------|--------2--------------2--------|
D|--4--------------4--------------|--2--------------2--------------|
A|--------------------------------|--------------------------------|
E|--------------------------------|--------------------------------|
 decir algo      que las          palabras         nunca hubieran

  E
E|--------------0--------------0--------------0--------------0--|
B|-----0-----0--------0-----0--------0-----0--------0-----0-----|
G|--------1--------------1--------------1--------------1--------|
D|--2--------------2--------------2--------------2--------------|
A|--------------------------------------------------------------|
E|--------------------------------------------------------------|
   dicho mejor.

  D
E|--------------2--------------2--------------2--------------2--|
B|-----3-----3--------3-----3--------3-----3--------3-----3-----|
G|--------2--------------2--------------2--------------2--------|
D|--0--------------0--------------0--------------0--------------|
A|--------------------------------------------------------------|
E|--------------------------------------------------------------|
 Aquella        mirada            era el      resumen   de la

  E
E|--------------0--------------0--------------0--------------0--|
B|-----0-----0--------0-----0--------0-----0--------0-----0-----|
G|--------1--------------1--------------1--------------1--------|
D|--2--------------2--------------2--------------2--------------|
A|--------------------------------------------------------------|
E|--------------------------------------------------------------|
   noche        posada en tus     ojos,         con su lluvia, su

  F#m                              A
E|--------------2--------------2--|--------------0--------------0--|
B|-----2-----2--------2-----2-----|-----2-----2--------2-----2-----|
G|--------2--------------2--------|--------2--------------2--------|
D|--4--------------4--------------|--2--------------2--------------|
A|--------------------------------|--------------------------------|
E|--------------------------------|--------------------------------|
  viento y tu    miedo al           mar            de aquel sueño

  E
E|--------------0--------------0--------------0--------------0--|
B|-----0-----0--------0-----0--------0-----0--------0-----0-----|
G|--------1--------------1--------------1--------------1--------|
D|--2--------------2--------------2--------------2--------------|
A|--------------------------------------------------------------|
E|--------------------------------------------------------------|
  que te       conté.                                          No

  A
E|--------------0--------------0--------------0--------------0--|
B|-----2-----2--------2-----2--------2-----2--------2-----2-----|
G|--------2--------------2--------------2--------------2--------|
D|--2--------------2--------------2--------------2--------------|
A|--------------------------------------------------------------|
E|--------------------------------------------------------------|
  puedo         dejarte de       ver     describiendo una

  E
E|--------------0--------------0--------------0--------------0--|
B|-----0-----0--------0-----0--------0-----0--------0-----0-----|
G|--------1--------------1--------------1--------------1--------|
D|--2--------------2--------------2--------------2--------------|
A|--------------------------------------------------------------|
E|--------------------------------------------------------------|
estrella    descubierta      por mí              en tu erótica

  F#m                              A
E|--------------2--------------2--|--------------0--------------0--|
B|-----2-----2--------2-----2-----|-----2-----2--------2-----2-----|
G|--------2--------------2--------|--------2--------------2--------|
D|--4--------------4--------------|--2--------------2--------------|
A|--------------------------------|--------------------------------|
E|--------------------------------|--------------------------------|
   constelación, que no             cabe            en los mapas

  E
E|--------------0--------------0--------------0--------------0--|
B|-----0-----0--------0-----0--------0-----0--------0-----0-----|
G|--------1--------------1--------------1--------------1--------|
D|--2--------------2--------------2--------------2--------------|
A|--------------------------------------------------------------|
E|--------------------------------------------------------------|
   del cielo.                                                  Tu

  D
E|--------------2--------------2--------------2--------------2--|
B|-----3-----3--------3-----3--------3-----3--------3-----3-----|
G|--------2--------------2--------------2--------------2--------|
D|--0--------------0--------------0--------------0--------------|
A|--------------------------------------------------------------|
E|--------------------------------------------------------------|
   mano,      dibujando en el     aire,          era

  E
E|--------------0--------------0--------------0--------------0--|
B|-----0-----0--------0-----0--------0-----0--------0-----0-----|
G|--------1--------------1--------------1--------------1--------|
D|--2--------------2--------------2--------------2--------------|
A|--------------------------------------------------------------|
E|--------------------------------------------------------------|
 capaz de       ponerle color                    al espacio

  F#m                              A
E|--------------2--------------2--|--------------0--------------0--|
B|-----2-----2--------2-----2-----|-----2-----2--------2-----2-----|
G|--------2--------------2--------|--------2--------------2--------|
D|--4--------------4--------------|--2--------------2--------------|
A|--------------------------------|--------------------------------|
E|--------------------------------|--------------------------------|
 vacío,          que se          llenaba           con la luz de la

  E
E|--------------0--------------0--------------0--------------0--|
B|-----0-----0--------0-----0--------0-----0--------0-----0-----|
G|--------1--------------1--------------1--------------1--------|
D|--2--------------2--------------2--------------2--------------|
A|--------------------------------------------------------------|
E|--------------------------------------------------------------|
estrella      brillante.                                    Cuida

  A
E|--------------0--------------0--------------0--------------0--|
B|-----2-----2--------2-----2--------2-----2--------2-----2-----|
G|--------2--------------2--------------2--------------2--------|
D|--2--------------2--------------2--------------2--------------|
A|--------------------------------------------------------------|
E|--------------------------------------------------------------|
  bien     tus estrellas,      mujer,    cuida bien tus

  E
E|--------------0--------------0--------------0--------------0--|
B|-----0-----0--------0-----0--------0-----0--------0-----0-----|
G|--------1--------------1--------------1--------------1--------|
D|--2--------------2--------------2--------------2--------------|
A|--------------------------------------------------------------|
E|--------------------------------------------------------------|
estrellas.                                                  Cuida

  F#m                              D
E|--------------2--------------2--|--------------2--------------2--|
B|-----2-----2--------2-----2-----|-----3-----3--------3-----3-----|
G|--------2--------------2--------|--------2--------------2--------|
D|--4--------------4--------------|--0--------------0--------------|
A|--------------------------------|--------------------------------|
E|--------------------------------|--------------------------------|
  bien     tus estrellas,         mujer,    cuida bien tus

  E
E|--------------0--------------0--------------0--------------0--|
B|-----0-----0--------0-----0--------0-----0--------0-----0-----|
G|--------1--------------1--------------1--------------1--------|
D|--2--------------2--------------2--------------2--------------|
A|--------------------------------------------------------------|
E|--------------------------------------------------------------|
estrellas.                                                  Cuida

  A
E|--------------0--------------0--------------0--------------0--|
B|-----2-----2--------2-----2--------2-----2--------2-----2-----|
G|--------2--------------2--------------2--------------2--------|
D|--2--------------2--------------2--------------2--------------|
A|--------------------------------------------------------------|
E|--------------------------------------------------------------|
  bien     tus estrellas,      mujer,

  G
E|--------------3--------------3--------------3--------------3--|
B|-----3-----3--------3-----3--------3-----3--------3-----3-----|
G|--------0--------------0--------------0--------------0--------|
D|--0--------------0--------------0--------------0--------------|
A|--------------------------------------------------------------|
E|--------------------------------------------------------------|

  D
E|--------------2--------------2--------------2--------------2--|
B|-----3-----3--------3-----3--------3-----3--------3-----3-----|
G|--------2--------------2--------------2--------------2--------|
D|--0--------------0--------------0--------------0--------------|
A|--------------------------------------------------------------|
E|--------------------------------------------------------------|

  C                                E
E|--------------0--------------0--|--------------0-----------|
B|-----1-----1--------1-----1-----|-----0-----0--------0--0--|
G|--------0--------------0--------|--------1-----------1--1--|
D|--2--------------2--------------|--2--------------2--------|
A|--------------------------------|--------------------------|
E|--------------------------------|--------------------------|
                                                            No

  A
E|--------------0--------------0--------------0--------------0--|
B|-----2-----2--------2-----2--------2-----2--------2-----2-----|
G|--------2--------------2--------------2--------------2--------|
D|--2--------------2--------------2--------------2--------------|
A|--------------------------------------------------------------|
E|--------------------------------------------------------------|
  puedo         dejar       de decir           que hay idiomas

  E
E|--------------0--------------0--------------0--------------0--|
B|-----0-----0--------0-----0--------0-----0--------0-----0-----|
G|--------1--------------1--------------1--------------1--------|
D|--2--------------2--------------2--------------2--------------|
A|--------------------------------------------------------------|
E|--------------------------------------------------------------|
perfectos         por      descubrir             y que son

  F#m                              A
E|--------------2--------------2--|--------------0--------------0--|
B|-----2-----2--------2-----2-----|-----2-----2--------2-----2-----|
G|--------2--------------2--------|--------2--------------2--------|
D|--4--------------4--------------|--2--------------2--------------|
A|--------------------------------|--------------------------------|
E|--------------------------------|--------------------------------|
olvidados        frecuentemente                     en el tedio del

  E
E|--------------0--------------0--------------0--------------0--|
B|-----0-----0--------0-----0--------0-----0--------0-----0-----|
G|--------1--------------1--------------1--------------1--------|
D|--2--------------2--------------2--------------2--------------|
A|--------------------------------------------------------------|
E|--------------------------------------------------------------|
  tiempo.          Y  hay que buscarlos,               porque los

  D
E|--------------2--------------2--------------2--------------2--|
B|-----3-----3--------3-----3--------3-----3--------3-----3-----|
G|--------2--------------2--------------2--------------2--------|
D|--0--------------0--------------0--------------0--------------|
A|--------------------------------------------------------------|
E|--------------------------------------------------------------|
   barcos          y las piedras               tienen

  E
E|--------------0--------------0--------------0--------------0--|
B|-----0-----0--------0-----0--------0-----0--------0-----0-----|
G|--------1--------------1--------------1--------------1--------|
D|--2--------------2--------------2--------------2--------------|
A|--------------------------------------------------------------|
E|--------------------------------------------------------------|
abecedarios     mejores              para demostrar que son

  F#m                              A
E|--------------2--------------2--|--------------0--------------0--|
B|-----2-----2--------2-----2-----|-----2-----2--------2-----2-----|
G|--------2--------------2--------|--------2--------------2--------|
D|--4--------------4--------------|--2--------------2--------------|
A|--------------------------------|--------------------------------|
E|--------------------------------|--------------------------------|
   bellos                   sencillamente,         sin palabras o

  E
E|--------------0--------------0--------------0--0--|
B|-----0-----0--------0-----0--------0-----0-----0--|
G|--------1--------------1--------------1--------1--|
D|--2--------------2--------------2--------------2--|
A|--------------------------------------------------|
E|--------------------------------------------------|
esquemas.                                          No

  A
E|--------------0--------------0--------------0--------------0--|
B|-----2-----2--------2-----2--------2-----2--------2-----2-----|
G|--------2--------------2--------------2--------------2--------|
D|--2--------------2--------------2--------------2--------------|
A|--------------------------------------------------------------|
E|--------------------------------------------------------------|
  puedo         dejar       de decir  que esta triste

  E
E|--------------0--------------0--------------0--------------0--|
B|-----0-----0--------0-----0--------0-----0--------0-----0-----|
G|--------1--------------1--------------1--------------1--------|
D|--2--------------2--------------2--------------2--------------|
A|--------------------------------------------------------------|
E|--------------------------------------------------------------|
canción      a tu lado       oscurece,         que quizá

  F#m                              A
E|--------------2--------------2--|--------------0--------------0--|
B|-----2-----2--------2-----2-----|-----2-----2--------2-----2-----|
G|--------2--------------2--------|--------2--------------2--------|
D|--4--------------4--------------|--2--------------2--------------|
A|--------------------------------|--------------------------------|
E|--------------------------------|--------------------------------|
    este sea    el último        misterio         que mirarán tus

  E
E|--------------0--------------0--------------0--------------0--|
B|-----0-----0--------0-----0--------0-----0--------0-----0-----|
G|--------1--------------1--------------1--------------1--------|
D|--2--------------2--------------2--------------2--------------|
A|--------------------------------------------------------------|
E|--------------------------------------------------------------|
    ojos          nacer   de mis manos.                   Pues es

  D
E|--------------2--------------2--------------2--------------2--|
B|-----3-----3--------3-----3--------3-----3--------3-----3-----|
G|--------2--------------2--------------2--------------2--------|
D|--0--------------0--------------0--------------0--------------|
A|--------------------------------------------------------------|
E|--------------------------------------------------------------|
   tarde       quizás       para mí          y Caín me ha

  E
E|--------------0--------------0--------------0--------------0--|
B|-----0-----0--------0-----0--------0-----0--------0-----0-----|
G|--------1--------------1--------------1--------------1--------|
D|--2--------------2--------------2--------------2--------------|
A|--------------------------------------------------------------|
E|--------------------------------------------------------------|
marcado           sobre      la frente.  Pero quiero

  F#m                              A
E|--------------2--------------2--|--------------0--------------0--|
B|-----2-----2--------2-----2-----|-----2-----2--------2-----2-----|
G|--------2--------------2--------|--------2--------------2--------|
D|--4--------------4--------------|--2--------------2--------------|
A|--------------------------------|--------------------------------|
E|--------------------------------|--------------------------------|
alertarte         de un gran      peligro           y quisiera

  E
E|--------------0--------------0--------------0--|
B|-----0-----0--------0-----0--------0-----0-----|
G|--------1--------------1--------------1--------|
D|--2--------------2--------------2--------------|
A|-----------------------------------------------|
E|-----------------------------------------------|
encenderte         esta frase en la mente:

        A
Cuida bien tus estrellas, mujer,
                   E
cuida bien tus estrellas.

        F#m                  D
Cuida bien tus estrellas, mujer,
                   E
cuida bien tus estrellas.

        A
Cuida bien tus estrellas, mujer,
                   E
cuida bien tus estrellas.

        F#m                  D
Cuida bien tus estrellas, mujer,
                   G     E
cuida bien tus estrellas.

A E F#m D C E

        A
Cuida bien tus estrellas, mujer,
                   E
cuida bien tus estrellas.
        F#m                  D  E
Cuida bien tus estrellas, mujer,
          A             D E A
y que nunca las pierdas.
Suggest correction
Give kudos to tab author, rate the tab!
1 2 3 4 5
comments
print report bad tab
guest
You may want to rate the tab now too:
select rating
Wanna post a correction for this tab? Suggest correction