Oops, an error
Loading. Please wait.

La Era Esta Pariendo Un Corazón Tab

295 views 1 this week
no commentswrite comment
1 2 3 4 5
3 more votes to show rating
add to favorites
launch autoscroll
font size
0
reset
how to read this tab
guitar tuner
×
Best way to learn
"La Era Esta Pariendo Un Corazón"
Autoscroll
slow
fast
+/-
esc
set tempo
stop
La era esta pariendo un corazon 

Hay q desafinar la guitarra 1 tono y ½.Bueno y las cuerdas quedarian en
este orden (1E-C#),(2B-G#),(3G-E),(4D-B),(5ªA-F#),(6E-C#).Recordar que
silvio no toca con su guitarra afinada comúnmente, y bueno aunque no les
parezca bien para darse cuenta de que esta canción esta bien solo tienen
que escuchar la canción original pero deben detenerse en los bajos del
acorde y se daran cuenta de que esta canción esta correcta.
Clave Americana: C:DO-D:RE-E:MI-F:FA-G:SOL-A:LA-B:SI

Intro: s                      p
C#|---5-4--4-4-4-4-4-4-4-----5-4--4-4-4-4-4-4-4----------||
G#|---------------------0-----------------------0--------||
E |----s----------------------s--------------------------||
B |---3-2?(2)----------------3-2--(2)--------------------||X2
F#|------------------------------------------------------||
C#|------------------------------------------------------||

  Le he preguntado  a mi  sombra  a ver como ando
C#|---------4---4--4--4----4--4--4--4-----4---4--4-4-------||
G#|------4----4---4--4---3---3--3--3----2---2--2--2--------||
E |--------------------------------------------------------||
B |------2---------------2---------------------------------||
F#|-------------------------------------0------------------||
C#|--------------------------------------------------------||

  Para reirme mientras el llanto   con voz de templo
C#|-----4--4-4-4---4-------0-0-0-0-0-0---2-2-2-2-2-2-------||
G#|---1---1-1-1--1---------0-0-0-0-0-0---2-2-2-2-2-2-------||
E |------------------------1-1-1-1-1-1---2-2-2-2-2-2-------||
B |--------------------------------------------------------||
F#|---0----------------------------------------------------||
C#|-----------------------0--(0)?(0)----2--(2)-(2)---------||

  Rompe en la sala      regando el tie-mp-o
C#|--2-2-2-----2-2-2-2-2-2-2-2-2-2-2-4-2-2-2---------------||
G#|--2-2-2-----4-4-4-2-2-2-4-5-5-5-5-5-4-4-4---------------||
E |--2-2-2-----4-4-4-4-4-4-4-4-4-4-4-4-4-4-4---------------||
B |--------------------------------------------------------||
F#|----------2-------(2)----(2)----------------------------||
C#|-(2)----------------------------------------------------||


En esta parte se repite del comienzo en adelante.
       s                      p
C#|---5-4--4-4-4-4-4-4-4-----5-4--4-4-4-4-4-4-4----------||
G#|---------------------0-----------------------0--------||
E |----s----------------------s--------------------------||
B |---3-2?(2)----------------3-2--(2)--------------------||X2
F#|------------------------------------------------------||
C#|------------------------------------------------------||

  Mi sombra dice  que   reirse es ver los llantos
C#|---------4---4--4--4----4--4--4--4-----4---4--4-4-------||
G#|------4----4---4--4---3---3--3--3----2---2--2--2--------||
E |--------------------------------------------------------||
B |------2---------------2---------------------------------||
F#|-------------------------------------0------------------||
C#|--------------------------------------------------------||

  Como mi llanto y me he callado    desesperado
C#|-----4--4-4-4---4-------0-0-0-0-0-0---2-2-2-2-2-2-------||
G#|---1---1-1-1--1---------0-0-0-0-0-0---2-2-2-2-2-2-------||
E |------------------------1-1-1-1-1-1---2-2-2-2-2-2-------||
B |--------------------------------------------------------||
F#|---0----------------------------------------------------||
C#|-----------------------0--(0)?(0)----2--(2)-(2)---------||

  Y escucho entonces la tierra lloooraaaar
C#|--2-2-2-----2-2-2-2-2-2-2-2-2-2-2-4-2-2-2---------------||
G#|--2-2-2-----4-4-4-2-2-2-4-5-5-5-5-5-4-4-4---------------||
E |--2-2-2-----4-4-4-4-4-4-4-4-4-4-4-4-4-4-4---------------||
B |--------------------------------------------------------||
F#|----------2-------(2)----(2)----------------------------||
C#|-(2)----------------------------------------------------||

      La era esta pariendo un corazon no puede mas
E|-0-0---0--0--0-0---0--0------0-0----0-----0-0------------||
B|-0-0---0--0--0-0---0--0------2-2----2-----2-2------------||
G|-1-1---1--1--1-1---1--1------2-2----2-----2-2------------||
D|-2-2---------2-2-------------2-2----x-----2-2------------||
A|-2-2---------x-x-----------0-----0-2--4--0---------------||
E|-0-0--2--4---0-0--2--4-----------------------------------||
 Se muere de dolor, y hay que acudir corriendo pues se
E|---------------2-2-----2--2---2-2-----2--2---------------||
B|---------------2-2-----2--2---2-2-----2--2---------------||
G|---------------2-2-----2--2---2-2-----2--2---------------||
D|---------------4-4-----x--x---4-4-----x--x---------------||
A|-0-4-2-0-------4-4-----x--x---4-4-----x--x---------------||
E|----------4---2-----2-4--5---2-----2-4--5----------------||

     Caaaeee   eeelll pooorveniiir
E|----4-4------4--4----4-4------------0-0------------------||
B|----4-4------4--4----4-4------------0-0------------------||
G|----4-4------4--4----4-4------------1-1------------------||
D|----6-6------x--x----6-6------------2-2------------------||
A|----6-6------x--x---6----6?-4--2----2-2------------------||
E|--4-------4-5--7----x---------------0-0------------------||

      La era esta pariendo un corazon no puede mas
E|-0-0---0--0--0-0---0--0------0-0----0-----0-0------------||
B|-0-0---0--0--0-0---0--0------2-2----2-----2-2------------||
G|-1-1---1--1--1-1---1--1------2-2----2-----2-2------------||
D|-2-2---------2-2-------------2-2----x-----2-2------------||
A|-2-2---------x-x-----------0-----0-2--4--0---------------||
E|-0-0--2--4---0-0--2--4-----------------------------------||

  Se muere de dolor, y hay que acudir corriendo pues se
E|---------------2-2-----2--2---2-2-----2--2---------------||
B|---------------2-2-----2--2---2-2-----2--2---------------||
G|---------------2-2-----2--2---2-2-----2--2---------------||
D|---------------4-4-----x--x---4-4-----x--x---------------||
A|-0-4-2-0-------4-4-----x--x---4-4-----x--x---------------||
E|----------4---2-----2-4--5---2-----2-4--5----------------||

     Caaaeee   eeelll porveniir en cualquier selva deell
E|----4-4------4--4----4-4-------------5-5-----5-5----7-7--||
B|----4-4------4--4----4-4-------------5-5-----5-5----7-7--||
G|----4-4------4--4----4-4-------------6-6-----6-6----8-8--||
D|----6-6------x--x----6-6-------------7-7----7-------9-9--||
A|----6-6------x--x---6----6-4---------7-7--7---------9-9--||
E|--4-------4-5--7----x--------7-5-4--5------------5-7-----||

   Mundo    en cualquier calle
E|-----7-7----0-0------0-0-----2-2-----2----2----0-0----0-0||
B|-----7-7----0-0------0-0-----2-2-----2----2----2-2----2-2||
G|-----8-8----1-1------1-1-----2-2-----2----2----2-2----2-2||
D|---9--------x-x----2---------x-x--?--x----x----2-2----x-x||
A|-9----------x-x--2-----------x-x--4--x----x--0-----0-2-4-||
E|--------7--0--------------0-2-------2---4----------------||

E|---4-4----4--4----4-4------------5-5----5-5----7-7-7-7---||
B|---4-4----4--4----4-4------------5-5----5-5----7-7-7-7---||
G|---4-4----4--4----4-4------------6-6----6-6----8-8-9-8---||
D|---x-x----x--x----6-6------------7-7---7-------9-9-8-9---||
A|---x-x----x--x--6-----6-4--------7-7--7--------9-9-9-9---||
E|-4-----4-5--7------------7-5-4--5-----x-----5-7----------||
 Debo dejar la casa y el sillon    la madre vive
E|-0-0---0--0--0-0---0--0------0-0----0-----0-0------------||
B|-0-0---0--0--0-0---0--0------2-2----2-----2-2------------||
G|-1-1---1--1--1-1---1--1------2-2----2-----2-2------------||
D|-2-2---------2-2-------------2-2----x-----2-2------------||
A|-2-2---------x-x-----------0-----0-2--4--0---------------||
E|-0-0--2--4---0-0--2--4-----------------------------------||

 Hasta que muera el sol y hay que quemar el cielo si es
E|---------------2-2-----2--2---2-2-----2--2---------------||
B|---------------2-2-----2--2---2-2-----2--2---------------||
G|---------------2-2-----2--2---2-2-----2--2---------------||
D|---------------4-4-----x--x---4-4-----x--x---------------||
A|-0-4-2-0-------4-4-----x--x---4-4-----x--x---------------||
E|----------4---2-----2-4--5---2-----2-4--5----------------||

  Preciso   por vivir          por cualquier hombre  dell
E|----4-4------4--4----4-4-------------5-5-----5-5---7-7---||
B|----4-4------4--4----4-4-------------5-5-----5-5---7-7---||
G|----4-4------4--4----4-4-------------6-6-----6-6---8-9---||
D|----6-6------x--x----6-6-------------7-7----7------9-8---||
A|----6-6------x--x---6----6-4---------7-7--7--------9-9---||
E|--4-------4-5--7----x--------7-----5------------5-7------||

   Mundo    por cualquier casa
E|-7-7--------0-0---0----0----2-2-----2--2---0-0---0-0-----||
B|-7-7--------0-0---0----0----2-2-----2--2---2-2---2-2-----||
G|-8-8--------1-1---1----1----2-2-----2--2---2-2---2-2-----||
D|-9-9--------x-x---x----x----x-x---?4---x---2-2--2--------||
A|-9-9--------x-x---x----x----x-x--4-----x--0--------------||
E|--------7--0-----2---4----2-----x----4-------------------||
                                   Por cualquier
E|---4-4---4--4--4-----------5-5-5-----7-7-7---||
B|---4-4---4--4--4-----------5-5-5-----7-7-7---||
G|---4-4---4--4--4-----------6-7-6-----8-9-8---||
D|---x-x---x--x--x-----------7-5-7-----9-8-9---||
A|---x-x-6-x--x--x-6-4-------7-7-7-----9-9-9---||
E|-4------4--5--7-----7-5-4-5-------5-7--------||
     casaaaaaaa
E|-----0-0---0-----0-----2-2--2---2-----0-0----0---0-------||
B|-----0-0---0-----0-----2-2--2---2-----2-2----2---2-------||
G|-----1-1---1-----1-----2-2--2---2-----2-2----2---2-------||
D|-----x-x---x-----x-----x-x--x---x-----2-2----------------||
A|-----x-x---x-----x-----x-x--x-------0-----0-2---4--------||
E|-7--0-----2----4-----2-----2---4--5----------------------||


E|---4-4---4--4--4-----------5-5-5-----7-7-7--0-0-(0)------||
B|---4-4---4--4--4-----------5-5-5-----7-7-7--0-0-(0)------||
G|---4-4---4--4--4-----------6-6-6-----8-8-8--1-1-(1)--N---||
D|---x-x---x--x--x-----------7-7-7-----9-9-9--2-2-(2)--I---||
A|---x-x---x--x--x-6-4-------7-7-7-----9-9-9--2-2-(2)--F---||
E|-4------4--5--7-----7-5-4-5-------5-7-------0-0-(0)------||


BUENO AQUÍ VAN LAS NOTACIONES Y SIGLATURAS

(O)= NOTA FANTASMA :ESTA NOTA ES LA DURACIÓN DE LA ANTERIOR,            
NO SE TOCA SOLO SE DEJA QUE LA NOTA ANTERIOR SIGA SONANDO COMO UN ECO, O
UN LIGADO DE LA MISMA NOTA.

 h
5 6= HAMMER ? OM (O LIGADO ASCENDENTE): SE TOCA UNA VEZ EL 5(SUPONGAMOS
CON DEDO INDICE MANO IZQ.) Y LUEGO SE TOCA EL 6 SIN TOCAR CON LA MANO
DERECHA(CON DEDO MEDIO MANO IZQ.) REALIZANDO UNA ESPECIE DE MARTILLEO
CON LOS DEDOS DE LA MANO IZQ.

 h
6 5= PULL ? OFF (O LIGADO DESCENDENTE): ES LO MISMO QUE EL HAMMER OM
PERO AL REVEZ DE ADELANTE PARA ATRÁS.

 S
6 8= SLIDE O GLISSANDO: ES PARECIDO AL HAMER OM, PERO EN EL SENTIDO DE
QUE SE TOCA UNA VEZ CON LA MANO DERECHA Y LUEGO EL DEDO DE LA MANO
IZQUIERDA SE DESLIZA HACIA LA OTRA NOTA (SE UTILIZA SOLO UN DEDO DE LA
MANO IZQ. EN ESTA TÉCNICA)

 h
0  2= NOTITA O MORDEDURA: ESTA NOTITA SE LIGA A LA OTRA SOLO QUE NO
SUENA AL MISMO TIEMPO QUE LA SEGUNDA NOTA SUENA MUCHO MAS RAPIDO Y ES
SOLO PARA ADORNAR, SE PODRIA DECIR, EL RITMO.

LOS BAJOS:  BUENO HE DECIDIDO PONER CON NEGRITA TODOS LOS BAJOS DE LA
CANCIÓN YA QUE PUSE EL ACORDE MUY CERCA DEL BAJO, Y SILVIO TOCA LOS
BAJOS PRIMERO QUE LOS  ACORDES ES SOLO PARA DIFERENCIARLOS Y QUE SE
NOTEN.

NOTA: DESPUÉS QUE PASAN LA PRIMERA ESTROFA(A) Y EL PRIMER CORO (B)
COMIENZA NUEVAMENTE LA PRIMERA ESTROFA ,SOLO QUE DIFIERE DE LA OTRA
EN QUE ESTA TIENE BAJOS Y TIENE UN SUAVE RASGUEO Y LUEGO SE REPITE EL
CORO IGUAL AL ANTERIOR Y FINALIZA.
Suggest correction
Give kudos to tab author, rate the tab!
1 2 3 4 5
comments
print report bad tab
guest
You may want to rate the tab now too:
select rating
Wanna post a correction for this tab? Suggest correction