Oops, an error
Loading. Please wait.

La Familia, La Propiedad Privada Y El Amor Tab

289 views 1 this week
no commentswrite comment
1 2 3 4 5
3 more votes to show rating
add to favorites
×
Save as Personal and add changes to this tab that will be seen only by you. Learn more ›
×
You can save this tab as Personal to edit and correct it or add notes. All changes will be seen only by you. Learn more »
save as personal
new!
launch autoscroll
font size
0
reset
how to read this tab
guitar tuner
Autoscroll
slow
fast
+/-
esc
set tempo
stop
INTRO:

    F#m            B                 F#m
e|---------------------------------------------------------||
B|----------2-------4--------4---------2--------2----------||
G|--2---------2-------4--------4---------2--------2--------||
D|----4---------4-------4--------4---------4--------4------||
A|----------------4-------2--------2---------4--------4----||
E|--2-------2-------2--------2---------2--------2----------||

   B                F#m             B
e|--------------------------------------------------------||
B|-4-------4---------2-------2-------4-------4------------||
G|---4-------4---------2-------2-------4-------4----------||
D|-----4-------4---------4-------4-------4-------4--------||
A|-------2-------2---------4-------4-------2-------2------||
E|-2-------2---------2-------2-------2-------2------------||

  F#m               B                F#m
e|--------------------------------------------------------||
B|-4-------4--------4--------4--------2-------------------||
G|---2-------2--------4--------4--------2-----------------||
D|-----4-------4--------4--------4--------4---------------||
A|-------4-------4--------2--------2--------4-------------||
E|-2-------2--------2--------2--------2-------------------||


Canta:

F#m             B
 El derrumbe de un sueño
               A
algo hallado pasando
   F#m       B                A                D
e|-------------------------------------------------------------||
B|-2--------4--------4--------2-------2--------3-------3-------||
G|---2--------4--------4--------2-------2--------2-------2-----||
D|-----4--------4--------4--------2-------2--------0-------0---||
A|-------4--------2--------2--0-----0-0-----0--0-----0-0-----0-||
E|-2--------2--------2-----------------------------------------||

D                 Db
resultabas ser tú.

       Db
e|-------------------------------------||
B|---------2---------2---------2-------||
G|-------1---1-----1---1-----1---2-2---||
D|-----3---------3---------3---------4-||
A|---4---------4---------4-------------||
E|-1-------------------------------2---||


     F#m          B
Una esponja sin dueño
               A
un silbido buscando

   F#m       B                A                D
e|-------------------------------------------------------------||
B|-2--------4--------4--------2-------2--------3-------3-------||
G|---2--------4--------4--------2-------2--------2-------2-----||
D|-----4--------4--------4--------2-------2--------0-------0---||
A|-------4--------2--------2--0-----0-0-----0--0-----0-0-----0-||
E|-2--------2--------2-----------------------------------------||

D                 Db
resultaba ser yo

      Db
e|-------------------------------------||
B|---------2---------2---------2-------||
G|-1-----1---1-----1---1-----1---1-2---||
D|-----3---------3---------3---------4-||
A|---4---------4---------4-------------||
E|-1-------------------------------2---||


F#m                      A
Cuando se hallan dos balas
                      D    Db
sobre un campo de guerra
               F#m(EN ESTE ACORDE EMPIEZA EL RASGUEO)
algo debe ocurrir


   F#m     A               D                Db
e|-------------------------------------------------------||
B|-2-------2-------2-------3-------3----------------2----||
G|---2-------2-------2-------2-------2------------1------||
D|-----4-------2-------2-------0-------0--------3--------||
A|-------4-0-----0-0-----0-0-----0-0-----0----4----------||
E|-2----------------------------------------1------------||

  F#m(EN ESTE ACORDE EMPIEZA EL RASGUEO)
ocurrir
               Db
que prediga el Amor
                     F#m
de cabeza hacia el suelo
Db
una nube vendrá
                  F#m
o estampidas de tiempo
              Db
los ojos vendrán.
                    F#m
Fue preciso algo siempre

y no fue porque
D      E                        F#m-A-F#m
Tú tenías lazos blancos en la piel
tú, tenías precio puesto desde ayer
tú, valías cuatro cuños de la ley
D E                   D E
tú sentada sobre el miedo, sentada sobre el miedo
D E                            F#m-B-F#m-B
sentada sobre el miedo de correr

***(II)***
F#             A#m             G#m                D-E
Una buena muchacha de casa decente no puede salir
A              C#m                  Bm
que diría la gente el domingo en la misa
             E
si saben de ti
        Bm
que dirían los amigos
            Db
los viejos vecinos
             F#m
que vienen aquí
                Db
Qué dirían las ventanas,
                F#m
tu madre y su hermana
             Db              F#m
y todos los siglos de colonialismo español
            Db               F#m
que no en valde te han hecho cobarde qué diría

D         E                             F#m-A-B
Dios se ama sin la Iglesia y sin la ley
Dios, a quien ya te entregaste en comunión
Dios, que hace eternas las almas de los niños
                                     F#m-B-F#-
que destrozarán las bombas y el napalm


***(esta parte va igual al II parrafo)***

El derrumbe de un sueño
algo hallado pasando
resultaba ser yo
Una esponja sin dueño un silbido buscando
resultabas ser tú

Busca amor con anillos
y papeles firmados
y cuando dejes de amar
ten presentes los hijos
no dejes tu esposo
ni una buena casa
y si no se resisten
serruchen los bienes
que tienes derecho también
porque

tú tenías lazos blancos en la piel
tú, tenías precio puesto desde ayer
tú, valías cuatro cuños de la ley
      D E                   D E
tú sentada sobre el miedo, sentada sobre el miedo
D E                            F#m-B-F#m-B
sentada sobre el miedo de correr


****No se como se llama el acorde:  1 4 3 1 2 1  pero se parece mucho a Db ****


dzib**
Suggest correction
Give kudos to tab author, rate the tab!
1 2 3 4 5
comments
print report bad tab
guest
Wanna post a correction for this tab? Suggest correction