Oops, an error
Loading. Please wait.

La Gaviota Tab

version 3
version 3

Whole song

31 views 1 this week
no commentswrite comment
1 2 3 4 5
3 more votes to show rating
add to favorites
launch autoscroll
font size
0
reset
how to read this tab
guitar tuner
Autoscroll
slow
fast
+/-
esc
set tempo
stop
Help us to improve Ultimate-Guitar.com Take our survey!
×
    Intro: Cejilla en el 3° traste
    

    E|-----7b4-----------5b4------------|------------0--0-0-0----------|
    B|----------4h5h7---------4h5h7-----|-------0----0--0-0-0----------|
    G|?---------------4-------------6---|-----2------2--2-2-2----------|
    D|?---------------------------------|---2--------2-----------------|
    A|----------------------------------|---------0------------0-------|
    E|----------------------------------|------------------------------|


    E|--------------2-5p2---------------|--------4--4--4-4-4---4-------|
    B|-------2h3h5---------5p3p2--------|------4----4--4-4-4---4-------|
    G|--2h4-----------------------------|----6------6--6-6-6---6------?|
    D|----------------------------------|--6--------6----------6------?|
    A|----------------------------4-----|----------------------4-------|
    E|----------------------------------|------------------------------|

          DO#9                              LA9
    E|-----4------4------4--------------|---0------0------0------------|
    B|------4----4-4----4-4--4----------|----0----0-0----0-0--0--------|
    G|-------6--6---6--6----6-----------|-----2--2---2--2----2---------|
    D|---------6------6-----------------|-------2------2---------------|
    A|----------------------------------|------------------------------|
    E|----------------------------------|------------------------------|


      DO#9                       LA9
    A)Corrían los días de fines de guerra
    DO#9                     LA9     
    había un soldado regresando intacto
    DO#9                       LA9
    intacto del frío mortal de la tierra
    DO#9                      LA9
    intacto de flores de horror en su cuarto


          DO#9                              LA9
    E|--4~-4------4------4--------------|--0~-0------0------0------------|
    B|------4----4-4----4-4--4----------|------0----0-0----0-0--0--------|
    G|-------6--6---6--6----6-----------|-------2--2---2--2----2---------|
    D|---------6------6-----------------|---------2------2---------------|
    A|--4~------------------------------|--0~----------------------------|
    E|----------------------------------|--------------------------------|


    A)Elevo los ojos, respiro profundo
    la palabra cielo se hizo en su boca
    y como si no hubiera mas en el mundo
    por el firmamento paso una gaviota.

    B)
       Gaviota,      gaviota,           vals del equilibrio
    E|------------------------------|------------------------------|
    B|------------------------------|------------------------------|
    G|-----1h2p1-1-1---1h2p1--------|-----1h2p1-1-1---1h2p1--------|
    D|-----2-----2-2---2------------|-----2-----2-2---2------------|
    A|--2--2-----------2------------|--2--2-----------2------------|
    E|--0---------------------------|--0---------------------------|


    
    FA#m 
    cadencia increíble, llamada en el hombro
    SOL#m                    LA*
    gaviota, gaviota, blancura de lirio
    
       ay de bailarinas,             gaviota de asombro
    E|--4---------------------------|--2---------------------------|
    B|--5---------------------------|--4---------------------------|
    G|--6- rasgueo de  -------------|--4- rasgueo de --------------|
    D|--6- este acorde -------------|--4- este acorde -------------|
    A|--4---------------------------|--2------------------2p0------|
    E|------------------------------|-------------------------4-2--|


      FA#m           (VI-2·4 V-0)LAm  [VI-4·2·0]
    C)Adonde te marchas, canción de la brisa
    E|--2---------------------------|--0---------------------------|
    B|--2---------------------------|--1---------------------------|
    G|--2- rasgueo de  -------------|--2- rasgueo de --------------|
    D|--4- este acorde -------------|--2- este acorde -------------|
    A|--4---------------------0-----|--0---------------------------|
    E|--2----------------2h4--------|---------------------4p2--0---|

    MI              SIm   DO#
    tan rápida, tan detenida?
    FA#m                  SI
    disparo en la sien y metralla en la risa
    LA  MI         SI         DO#m     SI·LA9
    gaviota que pasa y se lleva la vida.

    A)Corrían los días de fines de guerra 
    paso una gaviota volando, volando
    lenta como un tiempo de amor que se cierra
    imperio de ala, de cielo y de cuando

    B)Gaviota, gaviota, vals del equilibrio...

    C)Corrían los días de fines de guerra
    paso una gaviota volando
    y el que anduvo intacto
    rodó por la tierra
    huérfano, desnudo
    herido, sangrando.
Suggest correction
Give kudos to tab author, rate the tab!
1 2 3 4 5
comments
print report bad tab
guest
You may want to rate the tab now too:
select rating
Wanna post a correction for this tab? Suggest correction