Oops, an error
Loading. Please wait.

La Gaviota Tab

version 4
version 4

Whole song

94 views 1 this week
no commentswrite comment
1 2 3 4 5
3 more votes to show rating
add to favorites
launch autoscroll
font size
0
reset
how to read this tab
guitar tuner
×
Best way to learn
"La Gaviota"
Autoscroll
slow
fast
+/-
esc
set tempo
stop
INTRO

Riff 1 A9  Riff 2 C#m7

Riff 1 A9  Riff 2 C#m7

G#sus4 Esus4 G#sus4 Esus4

RIFF 1
E--------------------------
A--------------------------
D--------------------------
G----------6------------6--
B----4-5-7--------7-5-4----
e-7p4--------4h5h4---------

RIFF 2
E----------------------------------
A-0--------------------------------
D---2------------------------------
G-----2p4--------------------------
B--------0p2p4-5-----------4p2p4---
e----------------0-2-4-2-0---------


RIFF 3
E-----5-4-------------
A--2------------------

RIFF 4
E--2-4----------------
A------0--------------

RIFF 5
E--4-2--0-------------
A---------------------


G#sus4                Esus4
Corrían los días de fines de guerra
G#sus4                 Esus4
había un soldado regresando intacto
G#sus4               Esus4
intacto del frío mortal de la tierra
G#sus4                  Esus4
intacto de flores de horror en su cuarto

G#sus4/C# Esus4/A

G#sus4/C# Esus4/A

G#sus4/C#         Esus4/A
Elevo los ojos, respiro profundo
G#sus4/C#           Esus4/A
la palabra cielo se hizo en su boca
G#sus4/C#           Esus4/A
y como si no hubiera más en el mundo
G#sus4/C#          Esus4/A
por el firmamento paso una gaviota.

   E
Gaviota, gaviota, vals del equilibrio
 F#m
cadencia increíble, llamada en el hombro
  G#m              A
gaviota, gaviota, blancura de lirio
C#m                  B           RIFF 3
ay de bailarinas, gaviota de asombro
 F#m       RIFF 4   Am7              RIFF 5
Adonde te marchas, canción de la brisa
E                   Bm7    C#7
tan rápida, tan detenida?
 F#m            RIFF4  B/A               A
disparo en la sien y metralla en la risa
   E             G#m C#m7
gaviota que pasa
             B   Esus4/A
y se lleva la vida.

  Esus4/A              G#sus4/C#
E------------------------------------------
A--0-----0-----0-------4------4------------
D----2--------------------6------6---------
G-----2--------------------6------------6--
B--0---0p2-2s4-4p5-7p5------5-------5p4----
e----------------------4------4------------

  Esus4/A              G#sus4/C#
E------------------------------------------
A--0-----0-----0-------4------4------------
D----2--------------------6------6---------
G-----2--------------------6------------6--
B--0---0p2-2s4-4p5-7p5------5-------5p4----
e----------------------4------4------------

  Esus4/A              G#sus4/C#
E------------------------------------------
A--0-----0-----0-------4------4------------
D----2--------------------6------6---------
G-----2--------------------6------------6--
B--0---0p2-2s4-4p5-7p5------5-------5p4----
e----------------------4------4------------


G#sus4/C# Esus4/A G#sus4/C# Esus4/A

G#sus4/C# Esus4/A


G#sus4           Esus4                G#sus4
Corrían los días de a fines de guerra
                  Esus4            G#sus4
paso una gaviota volando, volando
                Esus4
lento como un tiempo de amor que se cierra
G#sus4                Esus4
       imperio de ala, de cielo y de cuando
 E
Gaviota, gaviota, vals del equilibrio
 F#m
cadencia increíble, llamada en el hombro
  G#m              A
gaviota, gaviota, blancura de lirio
C#m                  B           RIFF 3
ay de bailarinas, gaviota de asombro
F#m        RIFF 4 Am7              RIFF 5
corrían los días de a fines de guerra
 E                  Bm7  C#7
paso una gaviota volando
F#m                       B               A
y el que anduvo intacto rodó por la tierra
  E               G#m C#m
huérfano, desnudo
            B   Esus4/A
herido, sangrando.

E-----------------------------------------------------
A--0-----0-----0-------0----0-----0-------4-------4---
D----2------------------2-------------------6---------
G-----2------------------2--------------------6-------
B--0---0p2-2s4-4p5-7p5-0--0p2-2s4 4p5-7p5-------5-----
e-----------------------------------------4-------4---

Riff 1 A9  Riff 2 C#m7

Riff 1 A9  Riff 2 C#m7

E A D G E E
X 0 2 4 2 0  A9

X X 6 6 4 4  G#sus4

X X 2 2 0 0  Esus4

X 4 6 6 4 4  G#sus4/C#

X 0 2 4 0 0  Esus4/A

X 0 4 4 4 2   B/A
Suggest correction
Give kudos to tab author, rate the tab!
1 2 3 4 5
comments
print report bad tab
guest
You may want to rate the tab now too:
select rating
Wanna post a correction for this tab? Suggest correction