Oops, an error
Loading. Please wait.

La Gaviota Tab

version 5
version 5

Whole song

49 views 1 this week
no commentswrite comment
1 2 3 4 5
3 more votes to show rating
add to favorites
×
Save as Personal and add changes to this tab that will be seen only by you. Learn more ›
×
You can save this tab as Personal to edit and correct it or add notes. All changes will be seen only by you. Learn more »
save as personal
new!
launch autoscroll
font size
0
reset
how to read this tab
guitar tuner
Autoscroll
slow
fast
+/-
esc
set tempo
stop
intro:
1---7p4----------4h5p4-------------------------------0------
2--------4h5h7----------7-5-4---------------2--------2------
3------------------------------6/4-------4-----------4------
4----------------------------------------------2-----2------
5------------------------------------0---------------0------
6-----------------------------------------------------------

                                                         DO#m7
1--------------------0h2-4p2--------------------4-----------
2-------------0h2/4-----------2/4--2/6--------5-------------
3----------2--------------------------------4---------------
4-------2---------------------------------6-----------------
5---0-----------------------------------4-------------------
6-----------------------------------------------------------
x2

DO#9            LA9
corrian los dias, de fines de guerra
DO#9                           LA9
habia un soldado regresando intacto
DO#9                        LA9
intacto del frio mortal de la tierra
DO#9               LA9
intacto de flores de horror en su cuarto

DO#9-LA9-DO#9-LA9

DO#9          LA9
elevo los ojos, respiro profundo
DO#9                         LA9
la palabra cielo se hizo en su boca
DO#9                         LA9
y como si no ubiera mas en el mundo
DO#9             LA9
por el firmamento, paso una gaviota

MI
Gaviota, gaviota, vals del equilibrio,
FA#m
cadencia increíble, llamada en el hombro.
SOL#            LA
Gaviota, gaviota, blancura de lirio,
DO#m            SI
aire y bailarina, gaviota de asombro.

FA#                LA
¿A dónde te marchas, canción de la brisa,
MI                 SIm DO#m
tan rápida, tan detenida,
FA#                SI                     LA MI
disparo en la sien y metralla en la risa,
MI             SI DO#m     SI
gaviota que pasa y se lleva la vida?

  LA9                  DO#9
1----------------0h2-4--4---------4-------------------------
2--------0h2-0h4---------------4--4---5p4-------------------
3------2---------------------6----6-------6-----------------
4----2---------------------6------6-------------------------
5--0--------------------4---------4-------------------------
6-----------------------------------------------------------

  LA9
1----------------0h2-4--
2--------0h2-0h4--------
3------2----------------
4----2------------------
5--0--------------------
6-----------------------

DO#9           LA9
Corrían los días de a fines de guerra,
DO#9           LA9
pasó una gaviota volando, volando
DO#                    LA9
lento, como un tiempo de amor que se cierra,
DO#           LA9
imperio de ala, de cielo y de cuándo.


MI
Gaviota, gaviota, vals del equilibrio,
FA#m
cadencia increíble, llamada en el hombro.
SOL#            LA
Gaviota, gaviota, blancura de lirio,
DO#m            SI
aire y bailarina, gaviota de asombro

FA#             LAm
Corrían los días de a fines de guerra,
MI                SIm DO#m
pasó una gaviota volando
FA#                   SI                     LA MI
y el que anduvo intacto rodó por la tierra:
MI            SI DO#m    SI
huérfano, desnudo, herido, sangrando.

                                           DO#9
1----------------0-2---------------0-2-4---4-----
2--------0h2-0h4-----------0h2-0h4---------4-----
3------2-----------------2-----------------6-----
4----2-----------------2-------------------6-----
5--0-----------------0---------------------4-----
6------------------------------------------------

1---7p4----------4h5p4-------------------------------0------
2--------4h5h7----------7-5-4---------------2--------2------
3------------------------------6/4-------4-----------4------
4----------------------------------------------2-----2------
5------------------------------------0---------------0------
6-----------------------------------------------------------

                                                         DO#m7
1--------------------0h2-4p2--------------------4-----------
2-------------0h2/4-----------2/4--2/6--------5-------------
3----------2--------------------------------4---------------
4-------2---------------------------------6-----------------
5---0-----------------------------------4-------------------
6-----------------------------------------------------------
x3
Suggest correction
Give kudos to tab author, rate the tab!
1 2 3 4 5
comments
print report bad tab
guest
Wanna post a correction for this tab? Suggest correction