Oops, an error
Loading. Please wait.

La Gota De Rocío Tab

version 2
version 2

Whole song

287 views 1 this week
no commentswrite comment
1 2 3 4 5
3 more votes to show rating
add to favorites
launch autoscroll
font size
0
reset
how to read this tab
guitar tuner
Autoscroll
slow
fast
+/-
esc
set tempo
stop
Help us to improve Ultimate-Guitar.com Take our survey!
×
LAS TABLATURAS SON UN POCO DIFÍCILES DE ENTENDER
POR LOS TIEMPOS, TRATÉ DE ESCRIBIR ESTA LO MÁS
FACIL POSIBLE. ES COSA DE IR ESCUCHANDO LA MELODÍA
Y TRATAR DE SEGUIRLA. ESTA CANCIÓN EN ESPECIAL ESTA
EN UN TONO MAS BAJO.
(SI TU GUITARRA ESTA AFINADA EN 4.40)
LAS NOTAS QUE ESTAN EN LINEA VERTICAL
SE TOCAN AL MISMO TIEMPO
Y LAS QUE TIENEN DIFERENCIA, POR UNA PEQUEÑITA
DIFERENCIA DE TIEMPO,DE TIEMPO.


                       C
---3---3---3---2----------------2------------
-------------------3---3----3----------------
----5---5---------------2-------2------------  PRIMERA
-----------4---2---0-----0--0----------------   PARTE
---------------------------------------------
---------------------------------------------

                       C
---3---3---3---2----------------2------------
-------------------3---3----3----------------
----5---5---------------2-------2------------  SEGUNDA
-----------4---2---0-----0-------------------   PARTE
-------------------1--------1----------------
---------------------------------------------

                          C       D
---3---3---3---2------------------------------
-------------------0---3--3----3--------------
----5---5------------------2- ----0--0--------  TERCERA
-----------0----------------0-----------------   PARTE
---------------3---0---1-------0--------------
----------------------------------2--3--------
        D
---3------------------------------------------
----------------------------------------------
--------0--0--0-------------------------------  FINAL
----------------------------------------------
----3-----------------------------------------
--------0--2--3-------------------------------

Y ASI SE REPITE CONSTANTEMENTE, ES LA BASE Y
PROBABLEMENTE TENGA ERRORES SI LE CORRIGES ALGO
TE AGRADEZCO ME LO HAGAS SABER, ASI LA TOCARIA
MEJOR Y PUES DE ESO SE TRATA.
HAY ALGUNOS LUGARES DONDE PONGO UN ACORDE NO SE
TOCA COMPLETO PERO TE AYUDA A COLOCAR TUS DEDOS.

Y MIL DISCULPAS AL MAESTRO SILVIO SI EN EL INTENTO
LE PONGO EN LA MADRE A SUS CANCIONES, ES POR AMOR
AL ARTE Y A EL.
                SINCERAMENTE
                   Chazky
Suggest correction
Give kudos to tab author, rate the tab!
1 2 3 4 5
comments
print report bad tab
guest
You may want to rate the tab now too:
select rating
Wanna post a correction for this tab? Suggest correction