Oops, an error
Loading. Please wait.

La Masa Tab

256 views 1 this week
no commentswrite comment
1 2 3 4 5
3 more votes to show rating
add to favorites
launch autoscroll
font size
0
reset
how to read this tab
guitar tuner
×
Best way to learn
"La Masa"
Autoscroll
slow
fast
+/-
esc
set tempo
stop
Intro:

     Am                            E9/G#               
6E-----5-----------------------4----------------------------------------------
5A--------------------------------------------------------------------------
4D----------------7--6-5---------------------------------------------------
3G----------------------------------4------4---------------4------------------
2B-----------5-------------------------5---------------5----------------------
1e-----------------------------------------------0--------------0-------------

       G                          D9/F#                                        
6E----3----------------------2----------------------------------------------
5A-------------------------------------------------------------------------
4D-------------5--4--3--------------------------------------------------------
3G------------------------------2------2------------2-----------------------
2B---------3-----------------------3------------3-----------------------------
1e------------------------------------------0------------0------------------

     F                           Am7/E                                                     
6E---1------------------------0---------------------------------------------
5A-------------------------------------------------------------------------
4D-------------3--2--1--------------------------------------------------------
3G--------------------------------0--------------------0--------------------
2B--------1--------------------------0-------------2--------------------------
1e---------------------------------------0--1--0----------0-------------------

    D/F#       (aquí se hace un rasgueo)  Em
6E----0--------------------------------------0--------------------------------
5A----------------------------------------------------------------------------
4D----------------------------------------------------------------------------
3G---------2---------------2----------------------0-------------0-------------
2B------------3------------3-------------------------0----------3------------
1e---------------2---------2---------------------------0-1--0---------------

    Am                         E9/G#                                            
6E---------------------------4---------------------------------------------
5A------0-------------------------------------------------------------------
4D-------------------------------------------------------------------------
3G---------------2-1-0-----------4-------4------------4--------------------
2B------------------------------------5-------------5------------------------
1e-----------0----------------------------------0-----------0----------------


     G                    D9/F#                                               
6E--3------------------2----------------------------------------------------
5A-------------------------------------------------------------------------
4D----------5-4-3-------------------------------------------------------------
3G-------------------------2------2---------2--------------------------------
2B-------3-------------------3-----------3------------------------------------
1e------------------------------------0-----------0-------------------------

     F                         Am7/E                                                        
6E---1-------------------0--------------------------------------------------
5A---------------------------------------------------------------------------
4D------------3-2-1---------------------------------------------------------
3G---------------------------0-------------0--------------------------------
2B--------1--------------------0-------2------------------------------------
1e--------------------------------0-1----------0----------------------------

       D/F#                        E                                                          
6E----2------------------------0--------------------------------------------
5A-------------------------------------------------------------------------
4D-------------------------------------------------------------------------
3G--------2-----------2-----------0-------------0--SE-REPITE-DESDE-E-2-
2B-----------3--------3--------------0----------3-----------------------------
1e--------------2-----2-----------------0--1----------------------------------

     Am                                                                             
6E------------------------------------------------------------------------
5A---0----------------------------------0------------------------------------
4D-------------------------------------------------------------------------
3G----------2----------3-----3--------------3---------------------------------
2B-------------0-------2------------2----------2-----2------------------------
1e----------------1-0-----------0-----------------0---------------------------

        G                 F                  E                               
6E-----3-------------1--------------0----------------------------------------
5A-------------------------------------------------------------------------
4D-------------------------------------------------------------------------
3G---------0--------------2-----------0-----------3---------------------------
2B------------3--------------1-----------0--------2---------------------------
1e-------------------------------------------0-1----------------------------


      Am                            
6E------------------------------------------------------------------------
5A---0----------------------------------------------------------------------
4D-------------------------------------------------------------------------
3G-------3--------3--------3-------3------------------------------------------
2B-------------------------------------------------------------------------
1e-------------0-------0--------0------0--------------------------------------


   LAm                 MI9/SOL#
Si no creyera en la locura
 SOL                RE9/FA#
de la garganta del sinsonte
 FA                  LAm7/MI
si no creyera que en el monte
 RE/FA#                    MI
se esconde el trino y la pavura.

   LAm                  MI9/SOL#
Si no creyera en la balanza
   SOL              RE9/FA#
en la razón del equilibrio
  FA                Lam7/MI
si no creyera en el delirio
  RE/FA#                  MI
si no creyera en la esperanza.


    LAm                     MI9/SOL#
Si no creyera en lo que agencio
    SOL               RE9/FA#
si no creyera en mi camino
   FA                Lam7/MI
si no creyera en mi sonido 
    RE/FA#                  MI
si no creyera, en mi silencio.

(en esta parte empieza a rasguear  solo es cosa de oír la canción)
 MI       SId7
B)Que cosa fuera
 MI  SId7           LAm      LA4 LAm
Que cosa fuera la maza sin cantera
     SOL           FA      MI     SId7
un amasijo hecho de cuerdas y tendones
 MI SId7         LAm        LA4·LAm
un revoltijo de carne con madera
 SOL          FA     MI          SId7
un instrumento sin mejores resplandores
 MI  SId7    LAm             LA4 LAm
que lucecitas montadas para escena
       SOL      FA   MI           SId7
que cosa fuera -corazón- que cosa fuera
 MI     SId7        LAm         LA4
que cosa fuera la maza sin cantera
 LAm     SOL     FA      MI          SId7
un testaferro del traidor de los aplausos
 MI   SId7      LAm       LA4     LAm
un servidor de pasado en copa nueva
      SOL    FA     MI         SId7
un eternizador de dioses del ocaso
 MI     SId7     LAm        LA4   LAm
jubilo hervido con trapo y lentejuela
          SOL      FA  MI         SId7    
que cosa fuera -corazón- que cosa fuera
 MI  SId7        LAm       LA4  LAm
que cosa fuera la maza sin cantera
        SOL     FA   MI         SId7
que cosa fuera -corazón- que cosa fuera
 MI   SId7         LAm          LA4       SOL     FA   MI         SId7  LAm       LA4  LAm
que cosa fuera la maza sin cantera.

 


 LAm                 MI9/SOL#      
Si no creyera en lo mas duro
  SOL                RE9/FA#
si no creyera en el deseo
   FA                Lam7/MI
si no creyera en lo que creo
RE/FA#                    MI
si no creyera en algo puro.

 

 LAm                 MI9/SOL#      
Si no creyera en cada herida
 SOL                RE9/FA#
si no creyera en la que ronde
  FA                Lam7/MI
si no creyera en lo que esconde
  RE/FA#                    MI
hacerse hermano de la vida.

   LAm                 MI9/SOL#
Si no creyera en quien me escucha
   SOL                RE9/FA#
si no creyera en lo que duele
    FA                Lam7/MI
si no creyera en lo que queda
    RE/FA#                    MI
si no creyera en lo que lucha.

Que cosa fuera...

 
ACRDES:

       
LAm: 5  7  7  5  5  5----CEJILLA(O OPUEDEN USAR EL  X 0 2 2 1 0 ES MAS FACIL)
MI9/SOL: 4  X  X  4  5  0
SOL:  3  5  5  4  3  X--------CEJILLA
RE9/FA#: 2  X  X  2  3  0
FA: 1  3  3  2  1  X----------CEJILLA
Lam7/MI:  0  X  2 0  1  0-----EL BAJO ES EN LA SEXTA CUERDA
RE/FA#: 2  X  X  2  3  2
MI: 0  2  2  0 0  0
Sid7: x  2  x  2  3  1
La4: x  0  2  2  3  0

La cuerda que tenga una  
Suggest correction
Give kudos to tab author, rate the tab!
1 2 3 4 5
comments
print report bad tab
guest
You may want to rate the tab now too:
select rating
Wanna post a correction for this tab? Suggest correction