Oops, an error
Loading. Please wait.

Lo De Menos Tab

61 views 1 this week
no commentswrite comment
1 2 3 4 5
3 more votes to show rating
add to favorites
×
Save as Personal and add changes to this tab that will be seen only by you. Learn more ›
×
You can save this tab as Personal to edit and correct it or add notes. All changes will be seen only by you. Learn more »
save as personal
new!
launch autoscroll
font size
0
reset
how to read this tab
guitar tuner
Autoscroll
slow
fast
+/-
esc
set tempo
stop
INTRO
MI LA/FA# SI/SOL# LA/FA# MI LA/FA#SI/SOL# LA/FA#


 E------------2--------5--------------2---------
 B----------5--------5--------------5-----------
 G--------4--------6------6-------4-------------
 D----------------------------------------------
 A-----------------0----------------------------
 E-------0----------------------0---------------

         MI        LA           MI
A) Lo de menos son todos los secretos


 E-----------5--------------6-----5------------4-0
 B---------5--------------5-----5------5-4-5--5---
 G-------6-----6--------4-----6--------------4----
 D------------------------------------------------
 A-------0--------------------0------------------2
 E--------------------0--------------------0------

         LA           MI      LA           MI   SI
   que intuyo, huelo, toco y siempre te respeto.


 E-------------2--5-4-2---------------2----------
 B-----------5----------5-----------5------------
 G---------4----------------------4--------------
 D-----------------------------------------------
 A----------------0------------------------------
 E-------0---------------------0-----------------

         MI       LA           MI
   Lo de menos es que jamás me sobres,


 E-5-4-2--------------------2--4-----2------0------------------
 B-------5----------------5------5-----2----------4-5-4h5p4----
 G----------------------4---------------------4-6-----------6-4
 D-------------------------------------------------------------
 A-0---------------------------4------------2-------0----------
 E--------------------0--------------2-------------------------

   LA                 MI       DO#m  FA#    SI      LA
   que tu amor me enriquezca haciéndome más pobre.


 E--------------2-5-4-5--------------2--------------
 B------------5--------------------5----------------
 G----------4--------------------4------------------
 D--------------------------------------------------
 A-------4--------0----------0-4--------------------
 E--------------------------------------------------

         DO#m     LA           DO#m
   Lo de menos es que tus sentimientos


 E----5-4-5--------------2---4----5---7------------
 B---------------------5-------5----5---------------
 G-------------------4------------------6---6-7-6---
 D----------------------------------------7-------7-
 A----0----------0-----------4------------------------
 E-----------------0--------------5---7-------------

      LA           MI        DO#m FA# SI
   no marchen en horario con mi renacimiento.


 E-------5---------4---4---------------------------
 B--------------------------5---5h6-5h6------------
 G---------6---------4---------6---6---6-----------
 D----------------------------6-----6---6----------
 A--------------------------4----------------------
 E-------5---------4-------------------------------

         LA        SOL#7    DO#m
   Lo de menos es larga soledad,


 E-----------5----------2-------5-----5-----5-------
 B--------------------2---2-------------------------
 G---------7--------3-------3-----7-----7-----7-----
 D--------------------------------------------------
 A--------------------------------------------------
 E-------5---------2----------5-----5-----5---------

         LA        FA#        SI
   lo de menos es cuanto corazón.


 E--------4---0-------5----4------------------------
 B----------------2--------------4--------5--4------
 G-----------------------------------4--------------
 D--------------------------------------7-----------
 A--------------------------------------------------
 E--------0----------------------4------------------

          MI      LA/FA#         SOL#m  LA
B) Lo que menos importa es mi razón


 E-------4---0-----7------------------5-6------------------
 B--------------2-----4-------------8---------------------
 G--------------------------------7----------------
 D-------------------------------------------------
 A-------4----------------------0-------------------
 E-------------------------------------------------

         DO#m      SI           LA  FA#
   lo de menos incluso es tu jamás,


 E----------4--------------------------------------
 B-------------------5-----------------------------
 G---------------4-------4-------------------------
 D-------------6---6---6---------------------------
 A-------------------------------------------------
 E----------0--------------------------------------
            MI        SOL#m
   mientras cante mi amor


 E------5------------------------------------------
 B---------------5--------------------------------
 G-----------5-------5-----------------------------
 D---------6---6---6-------------------------------
 A-------------------------------------------------
 E------5------------------------------------------
        LA       MI
   intentando atrapar


 E---------4--4-------5--5--5-------4--4-------5--5--5--
 B--------5--5-------5--5--5-------5--5-------5--5--5----
 G-------6--6-------6--6--6-------6--6-------6--6--6----
 D--------------------------------------------------
 A-------4-----------------------4-----------------
 E------------------5-----------------------5------

         DO#m       LA           DO#m       LA
   las palabras que digan, las palabras que digan,


 E---------4--4-----5-----7------------------------------
 B--------5--5-----------------------------------------
 G-------6--6----------6-------------------------------
 D--------------------------------------------------
 A-------4-----------------------------------------
 E------------------5-----7------------------------
         DO#m        LA   SI    MI
   las palabras que digan lo de más.

 INTRO

A) Amoroso, de forma que no mancha,
   en verso y melodIa recurro a la revancha.
   Mi despecho te besará la vida
   allá donde más sola o donde más querida.
   Donde quiera que saltes o que gires
   habrá un segundo mío para que lo suspires.
   Es la prenda de larga soledad,
   es la prenda de cuánto corazón.

B) Lo que menos importa es mi razón...

A) Pajarillo, delfín de mis dos rosas,
   espántame los golpes y no la mariposa.
   Ejercita tu danza en mi cintura,
   aroma incomparable, oh pan de mi locura.
   Con tu cuerpo vestido de mis manos
   harE una nueva infancia, al borde del océano.
   Desde el mar te lo cuento en soledad,
   desde el mar te lo lanza un corazón.

B) Lo que menos importa es mi razón...
Acordes

E--0---------0-----
B--4---------2-----
G--4---------2-----
D--4---------2-----
A--0---------0-----
E--4---------2-----
  SI/SOL#    LA/SI
Suggest correction
Give kudos to tab author, rate the tab!
1 2 3 4 5
comments
print report bad tab
guest
Wanna post a correction for this tab? Suggest correction