Oops, an error
Loading. Please wait.

Lo Que Quisiste Ser Tab

version 1
version 1

Whole song

43 views 1 this week
no commentswrite comment
1 2 3 4 5
3 more votes to show rating
add to favorites
launch autoscroll
font size
0
reset
how to read this tab
guitar tuner
Autoscroll
slow
fast
+/-
esc
set tempo
stop
Help us to improve Ultimate-Guitar.com Take our survey!
×
Espero que con esta tab. también puedan sacarla muy parecida
a la versión grabada.

Si se quiere el punteo característico del comienzo habrá que
alargar mucho el meñique (juro que no es imposible) pero
memorizandola ubicación exacta de los dedos saldrá muy fácil.


------------------------------------------------------------------
CONVENCIONES
------------------------------------------------------------------


Hay pequeños riffs que se repiten en otras partes, van en el lapso
 comprendido entre dos letras entre paréntesis.

Esos riffs empiezan y terminan exactamente debajo de esas letras
Por ejemplo, "[a]>[a'] + " indica que se toca de nuevo
esa secuencia, el signo "+" indica que se empalma con lo que
sigue.


----------------------------------------------------------------
RASGUEO  (^)=  h. abajo en esa(s) cuerda(s)
         (v)=  h. arriba '   '     '
          Vx, ^x= rasgueo seco al final.  ººº= timbre largo
----------------------------------------------------------------

EL PUNTEO


.           MANO IZQUIERDA                MANO DERECHA
.                        p <<  pulgar  >> P
.                        i <<  indice  >> I
.                        m <<  medio   >> M
.                        a <<  anular  >> A
.                        ñ <<  meñique >> no aplica
                         - << "al aire">> -


EJEMPLOS :

--2---                          e|-----
------                          b|--2-- Agudo
------ la nota se toca con      g|-----
  i    el indice IZQ y el       d|-----        Simultáneos
  P    Pulgar DERECHO           a|--2--  Bajo /
                                E|-----
.                                   m :  cuerda 2a. >medio  izq
.                                   I :     "    "  >Indice DER.
.                                   i :  CUERDA 5a. >indice izq
.                                   P :     "    "  >Pulgar DER


------------------------------------------------------------------
1. INTRO                                            < > = arreglos
------------------------------------------------------------------

Guit.1
---------2--<0>--(0)--------------|----------------|--0-|-----
-----2------------|---3---2---0--(2)--0-----------(2)---| --2-
---2---2---2--<2>-|-2---2---2--(2)|-1-----2---1----|----|-2---
------------------0---------------|-----2---2--(2)-|----|-----
------------------|---------------|----------------0----|-----
-2----------------|---------------0----------------|----2-----
.i m a m ñ m - m  - m ñ m a m - m a i - m a m i m  a  - i m a
.P I M I A I A I  A I M I M I M I M I M P P P I P  M  A P I M
.:                -               -                -
.:                P               P                P
[A]


Guit.2
-----5ººº----2ººº-0---------------|----------------|--0-5-----
---------2ººº-----|---3---2---0---2---0-------0----2----|-2--4
------------------|---------------|-------2--------|----|-----
------------------0---------------|----------------|----|-----
------------------|---------------|----------------0----|-----
-2ºº--------------|---------------0----------------|----2-----
.i   ñ   i   i    -
.P   M   I   M    M
                  -
                  P

Em  Guit.1         E(Mi)
-0ººº0-------|-----|--------0-----|--------------------
---------0---|-----|------0-----0-|--------------------
-------1---1-|-----|----1-----0---|--------------------
-------------|-----|-2ºººººº------|(2h)4-2-0-----------
-------------|---0h2-:------------|-:-------4ºº2r0-----
-0ºº---------0h2--:--:------------|-:----------------2-
.                 :  :            [A*]             [a']
.                 *  *
.           ** para que este hammer salga fácil y rápido
.              es importantísimo apoyar SIMULTANEAMENTE
.              dedo medio en cuerda V y  en la IV

Repetir [a]>[a'] +

------------------------------------------------------------------
2. VERSO I                                          < > = arreglos
------------------------------------------------------------------

[244222]
-------2-----|------|---2-0ººº-----0-----|-0----|-2---0ººº0----<0>
-----------2-|----0-|-3---|---<0>------0-2---2--3---3-|-------0--
-----2---2---|--1---|-----|-<1>-<1>--1---|------|-----|-----1----
---4---------|------0-----|--------------|------0-----|--------<1>
-------------|------|-----|--------------0------|-----|-----------
2ººº---------0ººº---|-----0ººº-----------|------|-----0ººº--------
. Que necesita                humano ...


>  [a]>[a'] +


[244222]
---------2---0ººº---|-----|--------0---|-------0---2---
--2---2----2-|---(0-3)--3-|----0-----0-|-----2---3---3-
--------2----|-(1)--|-2---|------1-----|---------------
----4--------|------0-----|--2---------|---------0-----
-------------|------|-----|------------|---0-----------
2------------0ººº---|-----0ººº---------3h4-------------


0ººº0------------0------0-
|-------0------0------0---
|-----1------1------1-----
|----------2--------------
|-------------------------
0ººº----------------------


.                                                   [577655]
-------2---|-0----0ººº--0-----------------|---3-|---|----5--5-
-----3---3-|---2--|---0---0---------------|-3---|-3-|----5--5-
---2-------|------|-1-----:-[b]>[b'] + ---|-----|---|----6--6-
-0---------|------|-------:---------------|-----|---|--7----7-
-:---------|-0----|-------:---------------|-----|---|---------
-:---------|------0ººº|---:-----------0h2-3-----4---|-5-------
[B]                      [b']

que le ha fallado a la verdad ...
para quererla disfrazar


--------|-----|---5--5-
---2----|---3-|---5--5-
------0-|-----|---6--6-
--------|-----|------7-
--------|-----|--------
-3------|-4---|-5------
                                 A                 E
E    ^ p   A       ^   E         ^  v  ^           ^
---0-0-0-|-0-------0-|-------0-|-0-(0)(3)--^-v-^-|-2--v-^-v-
-----0-0-|-3---(3)-3-|-----0-0-|-3-(3)(3)--^-v-^-|-3--v-^-v-
-----1-1-|-3-(3)---3-|---1---1-|-3-(3)(3)--^-v-^-|-2--v-----
-2---2---|-3-------3-|-2-----2-|-3---------^-v---|-0--------
-2---2---|-----------|-2-----2-|-0---------------|(0)-------
-0-------|-----------|-0-------|-----------------|----------


 A        Dm/B [x2323x]  ^ºººº     ^  ^  ^     (rápido)
-^--^-v-^-|----------|---0-------|-0--0--0----^-^-v-
-^--^-v-^-|-3--^-^-^-|---0-------|-0--0--0-^--^-^-v-
-^--^-v-^-|-2--^-^-^-|---1-------|-2--1--2-2--^-^-vx
-^--^-v-^-|-3--^-^-^-|-2-2-(2)(^)|-2--2--2-2--^-^--- [a]>[a'] +
----------|-2--------|-2-2-(2)(^)|-2--2--2-2--------
----------|----------|-0---(0)(^)|------------------


------------------------------------------------------------------
3. VERSO II
------------------------------------------------------------------


[244222]                  Em             Am
---------2---0------|-----|--------0-----|------|-2---0ººº0------
-----------2-|-----(3)-3--|----0-----0---2----2-3---3-|-------0--
-----2-------|--1---|----2|-(1)--1-----1-|--2---|-----|-----1--(0)
---4---4-----|----2-0-----|--------------|------0-----|----------
-------------|----:-|-----|--------------0------|-----|-----------
2ººº---------0----:-|-----0--------------|------|-----0ººº--------
[C]             [c']

cuando mis ojos ...


>  [A]>[a'] >  [C]>[c'] +

                               Em
-------^x-|---------0-|---2---|-0-------^-0------0-----
-------0--|-------1---|-2---3-|-------0-^------0---0---
-----1-1--|-----------|-------|-----1---^----1-------1-
---2---2--|-----------|-0-----|---2-----^--------------
----------|-----0-----|-------|------------------------
-0--------|-2h4-------|-------|-0----------------------


------------------------------------------------------------------
>  [B]>[b']
y veo un dibujo del amor ...

>  [b]>[b'] + pequeño rasgueo
saltando a un cielo sin color ...
------------------------------------------------------------------


EL RESTO ES MUY SIMILAR HASTA :


------------------------------------------------------------------
4. VERSO III
------------------------------------------------------------------

Pero tus ojos que han llevado
mil adornos sobre su piel
y han olvidado hasta que fueron
una historia


-0-------0-------0---------0----
-----0-----0-------0-----0---(0)
-------1-----1-------1----------
---2-------------------2--------
--------------------------------
-0-------------0----------------
de amanecer ...


 D
------2---|--------|-----0---0-----|-------2---0ºº--|-------(0)-
3ººº----3-|-2ººº(2)0---0---0---0---|-3---3---3-|--2-|-----0-(0)-
---(2)----|--------|-1-----------1-|---2-------|----|---1-------
0ººº------|--------|---------------|-0---------|----|-----------
----------|-0ººº---|---------------|-----------0ºº--|-----------
----------|--------0---------------|-----------|----|-0---------
   y tu en  reLUcir ....        dejas la maGia humana y vas...


                                          A(II)
                         ^x  G   ^            ^ v ^
-------3-|-----|---------5-|-----3-|-----|----5-5-5-
-------3-|---3-|-------5-5-|--(3)3-|---3-|----5-5-5-
-------0-|-----|-----6---6-|-------|-----|----6-6-6-
---------|-----|---7-------|-------|-----|----------
---------|-----|-----------|-------|-----|----------
-0h2h3---|-4---|-5---------|-0ººººº|-4---|-5ººº-----
     ainte/tar otro papel  fingiendo para diferir ..


A(II)  E        A(II)  A       A    E
 ^   ^  ^ v ^ v       ^ v ^ v   ^   ^     ^ v ^ vX  ^
-5-|-0--0-0-0-0-|-5-|-0-0-0-0-|-0-|-0ºººº-0-0-0-0-|-0-
-5-|-0--0-0-0-0-|-5-|-3-0-3-0-|-3-|-0-----0-0-0-0-|-3-
-6-|-1--1---1---|-6-|-3---3---|-3-|-1-----1---1---|-3-
-7-|-2--2---2---|-7-|-3---3---|-3-|-2-----2---2---|-3-
-7-|-2--2---2---|-7-|-0-------|-0-|-2-------------|-0-
-5-|-0----------|-5-|-0-------|-0-|-0-------------|-0-


    D    >    A    > Dm/B[x2323x]
[^ºº^vx]  [^ºº^vx]   (^ººº ^v^x)

E     ^  Esus4  ^   ^  ^x   F#m         ^  v  ^           A o A(II)
------0-----0ººº0ººº---0-|--5---2-3-2-0-|-----0ºººº----------5ºººº
------0-----0---0---0--0-|----2---|-----3---2-0---0----------5--
------1-----2---1---1--1-|--------0-----|-----1-1----1h2-1---6--
-2ººº-2-^-^-2---2---2--2-|--------|-----|-2---1-----2------2-7--
-2ººº-2-2-2-2---2--------|--------|-----0-----2--------------7--
-0ººº-0-0-0-----0--------2ººº-----|-----|-----|--------------5--
no eres ya... lo quequisiste  ser                         THE END


LO QUE QUISISTE SER
(A la tonta que desistió)


¿Que necesita un ser humano
para no apartarse de sí
¿A que distancia está mi mano
de la gente que conocí?

¿Que le ha faltado a la verdad,
para quererla disfrazar?
¿Porqué un bufón llena el lugar
donde hubo tiempo para amar?

¿Porqué fingimos confusión
hasta acabar con la razón?

En fin, no sé como decir
que todo ha vuelto a ser normal
si solo sé que no eres ya
lo que quisiste ser

Cuando mis ojos se hacen aire
con tristeza pienso en el mar
porque mi tiempo es la distancia
recorrida para olvidar
y veo un dibujo del amor
saltando a un cielo sin color
buscando un mundo por rastrear
y una ansiedad y otra ansiedad
río de mar hecho a crayón
por quien aprende a dibujar,

En fin no se como decir
que se ha arruinado la canción
si solo sé que no eres ya
lo que quisiste ser

Pero tus brazos que han llevado
mil adornos sobre su piel
y han olvidado hasta que fueron
una historia de amanecer
y tu en función de relucir
dejas la magia humana y vas
a interpretar otro papel
fingiendo para diferir

No sé si es desesperación
o humilde ya resignación
en fin no sé como llamar
a esa versión de un pavo real
si solo sé que no eres ya....

Lo que quisiste ser.
Suggest correction
Give kudos to tab author, rate the tab!
1 2 3 4 5
comments
print report bad tab
guest
You may want to rate the tab now too:
select rating
Wanna post a correction for this tab? Suggest correction