Oops, an error
Loading. Please wait.

Lo Que Quisiste Ser Tab

version 2
version 2

Whole song

28 views 1 this week
no commentswrite comment
1 2 3 4 5
3 more votes to show rating
add to favorites
launch autoscroll
font size
0
reset
how to read this tab
guitar tuner
×
Best way to learn
"Lo Que Quisiste Ser"
Autoscroll
slow
fast
+/-
esc
set tempo
stop
Bueno, mi nombre es jean, soy de chile. esta es mi primera donación xD
eso llevo sacado, por lo que veo este tema no está en ningún lado, y
si lo está tiene mala tablatura,esta esta un 7 :D la saqué yo mismo, lo
malo es que he sacado ese restito, alguna conslta preguntar al
correo xjeanxaggrox@ en una de esas tengo más de la
tablatura :D chaoo califiquen :)


1|--5---2----0------------------------0---5------0---0--------------
2|----2---2----3-2-------2-------0--2--------2-4-------0------------
3|-----------------2p1h2---4-2-4-------------------------1----------
4|-----------0--------------------------------------2-----------1h2-
5|----------------------------------0-------------------------------
6|2----------------------0-----------------2------0--------0h2h4----

1|--0------------------|
2|----0----------------|
3|------1--------------|
4|-2-------2h4-2-0-----|
5|-----------------4-2-|
6|---------------------|

1|--5---2----0------------------------0---5------0---0--0-----------
2|----2---2----3-2-------2-------0--2--------2-4-------0------------
3|-----------------2p1h2---4-2-4------------------------------------
4|-----------0--------------------------------------2-----------1h2-
5|----------------------------------0-------------------------------
6|2----------------------0-----------------2------0--------0h2h4----

1|--0------------------|
2|----0----------------|
3|------1--------------|
4|-2-------2h4-2-0-----|
5|-----------------4-2-|
6|---------------------|

1|--------2--------------------2--0-----0----------0--2---0---
2|----------2----------0------------0-----0------2------3-----
3|------2-----2------1------2---------1-----1--2--------------
4|----4------------2------0--------------------------0--------
5|---------------------------------------------0--------------
6|-2-------------0----------------0-----------------------0---

1|-----0---0--------------|
2|---0---0----------------|
3|-1----------------------|
4|------------2h4-2-0-----|
5|--------------------4-2-|
6|------------------------|

en una de esas sea la única que escriba porque me demoré mucho en
escribir este pedacito ¬¬' xD escribanme a mi correo por si quieren
otra, yo las tengo en word
Suggest correction
Give kudos to tab author, rate the tab!
1 2 3 4 5
comments
print report bad tab
guest
You may want to rate the tab now too:
select rating
Wanna post a correction for this tab? Suggest correction