Oops, an error
Loading. Please wait.

Mariposas Tab

version 1
version 1

Whole song

280 views 1 this week
no commentswrite comment
1 2 3 4 5
2 more votes to show rating
add to favorites
launch autoscroll
font size
0
reset
how to read this tab
guitar tuner
×
Best way to learn
"Mariposas"
Autoscroll
slow
fast
+/-
esc
set tempo
stop
Buscaba la tabulatura de la canción de Silvio que más me gusta y
no lo encontré.
Bueno decidí de intentar lo mejor possible en escribir mi
primer tabulatura.

En los partes que son escritos solo con accordes, tocanlas en
la manera de la introduccion.

Por favor, disculpen errores ... y disfruten la canción!


Capo en 1° traste


(1) Intro

A                                 D9

-----------0-----0-----0-----0----------0-----0-----0-----0-----0-
-----0h2-----2-----2-------2----------3-----3-----3-----3-----3---
---2-----2-----2-----2---2-----2----2-----2-----2-----2-----2-----
2---------------------------------0-------------------------------
0-----------------------------------------------------------------
------------------------------------------------------------------

A                                 C+7           C6

------------0---------0-------------------0-----------------------
------0h2-----2---2-------2-----0-------0---0-----0-1---3---1-p0--
----2-----2-----2---2---2---2-2-------0-------0-2-----2---2------2
2-2---------------2-----------------2-----------------------------
0---------------------------------3-------------------------------
------------------------------------------------------------------

F+7/4                            C+7

------------0------------------------------0----------------------
0---------0-----0-----0-------0--------0-----0----------0-1-3-1-0-
----2---2-----2-----2---2---2--------0---0-----0---0-2------------
--3---3-----------3-------3--------2-------------2----------------
---------------------------------3--------------------------------
1-----------------------------------------------------------------

F+7/4                           E4

------------0-----0-------------------0-----0---------0-----0-----
0---------0-----0-----0-------0-----0-----0-----0---0-----0---0---
----2---2-----2-----2---2---2-----2-----2-----2---2-----2---------
--3---3-----------3-------3-----2-----------2---------------------
------------------------------------------------------------------
1-------------------------------0---------------------------------

F+7/6                           Hm7/-5

--------0-------0-----0-----------------0-------0-----0-----------
------3-----3-------3---3---3---------3-----3-------3---3---3-----
----2-----2---2---2-------2---------2-----2---2---2-------2-------
--3---------0---------------------3---------3---------------------
--------------------------------2---------------------------------
1-----------------------------------------------------------------

Ebdim7                                       E4        E

------2-----------------------------0---0-----------0-------0-----0
----1-----1-p0---1-p0---1-p0---1-p3---------0-----0-------0-----0--
--2-----2------2------2------2------------2-----1-------1-----1----
1----------------1------1---------------------2-------2------------
-------------------------------------------------------------------
--------------------------------------0-------------0--------------

(2) Vers:

D9                                     A
1. Hoy viene a ser como la cuarta vez que espero
2. Así eras tú en aquellas             tardes divertidas

D9                           A
Desde que se que no vendrás mas nunca
Así eras tú de furibunda compañera

C                                       F+7/4
He vuelto a ser aquel cantar del aguacero
Eras como esos días que eres la vida
                                        ------0-----------0-----0-------0
                                        ----0-----0-----0-----0-------0--
                                        --2-----2-----2-----2-------2----
                                        ------------3-------------3------
                                        ---------------------------------
                                        1--------------------------------

C                                       F+7/4
que hizo casi legal su abrazo a tu cintura                     y tu
y todo lo que tocas se hace primavera.                        Ay, mari-
                                        ------0---------0-----0-----0--
                                        ----0---------0-----0-----0----
                                        --2-----2---2-----2-----2------
                                        ----------3--------------------
                                        -------------------------------
                                        1------------------------------

E4                              Hm7/-5
apareces en mi ventana suave y pequeña, con alas blancas, yo ni
posas tú eres el alma de los    guerreros que aman y cantan, y eres el


Am6/E                                    E4           E
respiro, para que duermas y no te va-                 -yas
nuevoser que se asoma por mi garga-                   -nta
                                        ------0----------0-----0-----0-
                                        ----0---0------0-----0-----0---
                                        --2-------2--1-----1-----1-----
                                        -------------------------------
                                        -------------------------------
                                        0------------0-----------------


D                        A           D                A
        Que maneras más curiosas de recordar tiene uno

------0-h2-2-----2---0---0-------0-------0-h2-2-----2---0---------0----0
----3----------3-------2---2---2-------3----------3---3---------2-----2-
--2----------2-----2---------2-------2----------2---------2---2-----2---
0---------------------------------0-------------------------------------
---------------------4---2-0----------------------------4---0-----------
------------------------------------------------------------------------

D                   A    Hm                G       A
    Que maneras más curiosas por     recuerdo mariposas que ayer

------0-h2-2-----2---0---------2-----2---
----3----------3-------------3-----3-----
--2----------2-----2---2---4-----4-----4-
0----------------------------------------
---------------------4---2---------------
-----------------------------------------


D          D/C#   Hm            G         A
solo       fueron humo     mariposas, mariposas que emer-

--------2-------2-------2-----2----------
------3-------3-------3-----3------------
----2-------2-------4-----4-----4--------
--0--------------------------------------
----------4-------2----------------------
-----------------------------------------


D         D/C#     Hm

gieron     de      lo oscuro

--------2-------2-------2-----2----------
------3-------3-------3-----3------------
----2-------2-------4-----4-----4--------
--0--------------------------------------
----------4-------2----------------------
-----------------------------------------


 G          D/F#     A/E     A             C                 G
bailarinas silinciosas           tu tiempo es ahora una mariposa,
navecita,

--------2--2-----2-------0-------0-----0--
------3--------3-------2-------2-----2----
----4--------2-------2-------2-----2------
------------------------------------------
---------------------------0------------2-
--3--------2-------0----------------------


D/F#                 A               C                  G
blanca, delgada, nerviosa. Siglos atrás inundaron un segundo debajo del

D             A
cielo, encima del mundo,


(3) Refrain:

A
tu tiempo


C
/   ´´´/    ´´´/   ´´´/    ´´´/ /
es                  ahora una mari-


G
/   ´´´/    ´´´/   ´´´/    ´´´/ /
posa                       navecita,


D
/   ´´´/    ´´´/   ´´´/    ´´´/ /
blanca                 delgada, ner-


A
/   ´´´/    ´´´/   ´´´/    ´´´/ /
viosa                       siglos A


C
/   ´´´/    ´´´/   ´´´/    ´´´/ /
trás                    inundaron un se-


G
/   ´´´/    ´´´/   ´´´/    ´´´/ /
gundo                    debajo del


D
/   ´´´/    ´´´/   ´´´/    ´´´/ /
cielo                     encima del


A
/   ´´´/    ´´´/   ´´´/
mundo

-------
-------
-------
-------
-0-2-3-


(4) Interlude


C                                    G
--------0-----0-----------------------------3-------3--------------
----1-----1-----1-----------------------0-----0---0----------------
--0---0-----0-----0-------------------0---0-----0------------------
--------------------2-p0-------------------------------------------
3------------------------3-2-p0-----------------------5-p3---------
--------------------------------3-2-3----------------------7-p5-3--

D/F#                          A
--------2-----2-----------------------0-----0----------------------
----3-----3-----3-----------------2-----2-----2--------------------
--2---2-----2-------------------2---2-----2-----2------------------
-------------------------------------------------------------------
-------------------------3-2--0------------------------------------
2------------------0-2-3--------------------------0---2-3----------


C                                G
--------0-----0-----------------------------3-----3----------------
----1-----1-----1-----------------------0-----0-----0--------------
--0---0-----0-----0-------------------0---0-----0------------------
--------------------2-p0-------------------------------------------
3------------------------3-2-p0-----------------------5-p3---------
--------------------------------3-2-3----------------------7-p5-3--


D/F#                         A               A7
--------2-----2----------------------0----------0-----0------------
----3-----3-----3----------------2-----2------2---2-----2----------
--2---2-----2-----2------------2---2-----2--0-------0-----0--------
-------------------------------------------------------------------
------------------------3-2--0-------------------------------------
2-------------------2-3--------------------------------------------


(2) Vers 2
(3) Refrain 2x
Fade out
Suggest correction
Give kudos to tab author, rate the tab!
1 2 3 4 5
comments
print report bad tab
guest
You may want to rate the tab now too:
select rating
Wanna post a correction for this tab? Suggest correction