Oops, an error
Loading. Please wait.

Mariposas Tab

version 2
version 2

Whole song

118 views 1 this week
no commentswrite comment
1 2 3 4 5
2 more votes to show rating
add to favorites
launch autoscroll
font size
0
reset
how to read this tab
guitar tuner
×
Best way to learn
"Mariposas"
Autoscroll
slow
fast
+/-
esc
set tempo
stop
**Vean el video primero**


Capo en el primer traste  (versión youtube)

*=Armónico
~=Vibrado
Base de la introducción: La9* Mi9

(INTRO)

e|---------*12------------0--
B|------*12----------0-------
G|-----------------2---------
D|----*7---------2-----------
A|--*7---------0-------------
E|---------------------------

e|--------*12-----*12---*12---*12---*12---*12-----------------------|
B|-----*12------*12---*12---*12---*12---*12---*12---*12-------------|
G|------------------------------------------------------------------|
D|---*7--------*7----*7----*7----*7----*7----*7----*7----*7--*7-----|
A|-*7---------*7----*7----*7----*7----*7----*7----*7----*7--*7---*7-|
E|------------------------------------------------------------------|


e|-----7-------------7~--------7~-
B|---------10~----2------10~------
G|-------9------2------9-----9----
D|-------------2------------------
A|--0-----------------------------
E|--------------------------------

E|------------4-------4--------4--------4--------4-------|
B|----------5------5----5---5----5---5----5---5----5-----|
G|--------4------4---6----4---6----4---6----4---6----4---|
D|------7------------------------------------------------|
A|----4------------------------------------------------0-|
E|-0-----------------------------------------------------|


e|-7------7----7----------------7------7--------7---------7-----
B|-----10----------10----------8----8----8---8----8---8-----8---
G|---9---9---9---9-----------7----7---9----7---9----7---9-----7-
D|-------------------------10-----------------------------------
A|-----------------------7--------------------------------------
E|--------------------0-----------------------------------------

e|-----7------7------7-----7--|
B|---------10-----10-----10---|
G|-------9------9------9------|
D|----------------------------|
A|----------------------------|
E|-*12------------------------|


A9*                            E9
A) Hoy viene a ser como la cuarta vez que espero

A9*                              E9
desde que sé que no vendrás más nunca.

G9                         C7+/5-
He vuelto a ser aquel cantar del aguacero

G9                                  C7+/5-
que hizo casi legal su abrazo en tu cintura.

B7/4
Y tú apareces en mi ventana,

B9-
suave y pequeña, con alas blancas.

B7+/6-/5    Gdim   Bbdim
Yo ni respiro para que duermas

B7/4  B7 A   (V-IV-III-II-0-2)
y no te vayas.

(V-IV-III-II-0-2)
e|-----------------------------------
B|-------0h2----------------2--------
G|------2----2------2-----2---2------
D|-----2------2---2-----4-------4----
A|--0--------------------------------
E|--------------4-----2--------------


E/G#  F#m  E            A (V-IV-III-II-0-2)
B) Qué maneras más curiosas

E/G#    F#m       E   A (V-IV-III-II-0-2)
de recordar tiene uno,

E/G#        F#m
qué maneras más curiosas:

D               E
hoy recuerdo mariposas
e|----0-0-0------------------
B|----3-3-3-------2-2-0------
G|----2-2-2-------2-2-1------
D|--0-------------2-2-2------
A|--------------0-----2------
E|---------------------------

A    E/G#   F#m
que ayer sólo fueron humo,

D            E
mariposas, mariposas
e|----0-0-0------4-4-4-------
B|----3-3-3------5-5-5-------
G|----2-2-2------4-4-4-------
D|--0----------0-------------
A|---------------------------
E|---------------------------

A     E/G#     F#m  F#m/E
que emergieron de lo oscuro
e|-------5-5-----4-4-----2-2-------
B|-------5-5-----4-4-----2-2-------
G|-------6-6-----4-4-----2-2-------
D|---------------------------------
A|-----0---------------------------
E|-------------4-------2-------0---

D           D/C#    Bm   E
bailarinas,        silenciosas.


G9*              D*                   e|---10----9----7--------------
C) Tu tiempo es ahora una mariposa,   B|------0----0----0------------
                                      G|--------0----0----0----------
A9*                  E9               D|-----------------------------
navecita blanca, delgada, nerviosa.

G9                 D
Siglos atrás inundaron un segundo

A9                E
debajo del cielo, encima del mundo


VI-2 G9                 D
C1) Tu tiempo es ahora una mariposa,

A9                   E
navecita blanca, delgada, nerviosa.

VI-2   G9                 D
Siglos atrás inundaron un segundo

A9               E
debajo del cielo, encima del mundo


Intermedio:
Mi V-2-4-IV-0-Sol VI-3 y III-0
II-8 y I-7 II-7 y I-5 II-5 y I-3 II-3 y I-2
II-2 y I-0 III-0 y II-3 III-2 y II-2 Re
II-7 y I-5 II-5 y I-3 II-3 y I-2 II-2 y I-0
III-0 y II-3 La III-2 y II-2 II-0-2-3 I-3-2-Mi
Mi V-2-3-IV-0 Sol VI-3-III-0 [V-4-IV-0-VI-3]
II-0-III-2-0-IV-4-2-0-V-4 Re III-2-0
IV-4-2-0-V-4 V-0-2-IV-0-III-0-IV-4 Mi


e|--------7-5-3-2-0-----0---5-3-2-0-----------
B|--------8-7-5-3-2-2-3-2---7-5-3-2-3-2-3h5---
G|------------------2-4-------------4-2-4h6---
D|--------------------------------------------
A|--2-4h5-------------------------------------
E|--------------------------------------------

e|------------------------5------------------------------
B|--------0----------------------------------------------
G|----------2h0-------------2-0--------------0-----------
D|--------------4-2h0---0-------4-2-0----------4-2-------
A|--2-4h5-------------4---------------4---2-4--------0---
E|-------------------------------------------------0-----


A) así eras tú en aquellas tardes divertidas,
así eras tú de furibunda compañera.
Eras como esos días en que eres la vida
y todo lo que tocas se hace primavera.
Ay, mariposa, tú eres el alma
de los guerreros que aman y cantan,
y eres el nuevo ser que se asoma por mi garganta

B) Qué maneras más curiosas
de recordar tiene uno,
qué maneras más curiosas:
hoy recuerdo mariposas
que ayer sólo fueron humo,
mariposas, mariposas
que emergieron de lo oscuro
bailarinas, silenciosas,

C) Tu tiempo es ...

C1) Tu tiempo es ...

C1) Tu tiempo es ...


A9*: 575657
E9: 022102
G9: 320203
C7+/5-: X34000
B7/4: X24252
B9-: X24542
B7+/6-/5: X20323
Gdim: XX5656
Bbdim: XX8989
B7: X24242
A: X02220
E/G#: 400454
F#m: 244222
D: XX0232
F#m/E: XX2222
D/C#: X40232
G9*: X(10)908(10)
D*: XX0775
A9: X02200
Suggest correction
Give kudos to tab author, rate the tab!
1 2 3 4 5
comments
print report bad tab
guest
You may want to rate the tab now too:
select rating
Wanna post a correction for this tab? Suggest correction