Oops, an error
Loading. Please wait.

Nada Más Tab

67 views 1 this week
no commentswrite comment
1 2 3 4 5
3 more votes to show rating
add to favorites
launch autoscroll
font size
0
reset
how to read this tab
guitar tuner
×
Best way to learn
"Nada Más"
Autoscroll
slow
fast
+/-
esc
set tempo
stop
Silvio Rodriguez  gran musico no?.

Esta tablatura la saque a oído y creo que hay unas cosas que son asi,
pero esta version suena muy bien, creo que los errores no son muy notables
cuando la tocas y cantas.


Riff:1-intro.


e|---------------------------------------------0---2--3--2--0--2--0-|este intro se toca 4
B|-3---3-----1---1-----0---0-----1---1----0------0--0--0--0--0--0---|veces, pero la
G|---2---2-----0---0-----0---0-----2---2-----0----------------------|segunda y cuarta ves
D|-0----------------------------------------------------------------|se acompaña
A|-----------3-------------------0----------------------------------|con el riff 1.1
E|---------------------3------------------0-------------------------|

riff:1.1 este es el acompañamiento en la intro.

e|-2--2--2--3--3----3--3--2---3--5--3--2--0-------------------------|
B|------------------------------------------------------------------|
G|------------------------------------------------------------------|


******para el verso 1 y 2 se toca el riff 1*********

Verso 1:

Esta extraña tarde
desde mi ventana
Trae la brisa vieja
de por la mañana


riff 2  (Coro)
Para este riff acompañas con el 2 un Bm  con el 3 un G, luego se toca un  Am que es e 0
y un C que es el 3, esto rasgueado esta parte que pongo es para el bajo pero solo
miren la estrfamas abajo.

e|---------------------------------------------------------------------------------------|
B|---------------------------------------------------------------------------------------|
G|---------------------------------------------------------------------------------------|
D|---------------------------------------------------------------------------------------|
A|-2-2--2-2-2------------2-2--2-2-2------------0-0--0-0-2--3-3--3-3-2--0-0--0-0-2--3--3-3|
E|------------3-3--3-3-3------------3-3--3-3-3-------------------------------------------|

Bm
No hay nada aquí:
G                     Bm               G
sólo unos días que se prestan a pasar,
                         Am              C
sólo una tarde en que se puede respirar
                       Am                  C**
un diminuto instante inmenso en el vivir.

Riff: 3

e|-------2-----------------3---------------2-------|
B|-3---3-----3---------0-------0----3----3-----3---|
G|---2---------2-----0---0---0---------2---------2-|
D|-0--------------------------------0--------------|
A|-------------------------------------------------|
E|----------------3--------------------------------|


 **                 D
Después mirar la realidad
       G           D     *Em*
Y nada más, y nada más.


Cuando cambias a *Em* al final de coro tocas el  al riff: 4 dos veces.

Riff: 4

e|----------0--2--3--2--0--2--0--|
B|--------0--0--0--0--0--0--0----|
G|-------------------------------|
D|-------------------------------|
A|-2-0---------------------------|--el bajo de esta pate es rapido
E|-----0-------------------------|
 x 2 despues del primer coro.

Verso 2:

Ahora me parece
que hubiera vivido
Un caudal de siglos
por viejos caminos.

Despues se toca el coro de nuevo y terminas con el riff 4 varias veces,
en este es donde dos voces van cantando ahhhh ahhhhhh ahhhhh ......
termina creo que en un Em rasgueado hacia abajo.

                  *******
                  **Fin**
                  *******

Espero les guste. hace ya varios meses no escucho la cancion, pero si la
escucho y veo que hay que hacer arreglos, despues los mando.

Comentarios o reclamos o sugerencias o lo que sea a mi 
Suggest correction
Give kudos to tab author, rate the tab!
1 2 3 4 5
comments
print report bad tab
guest
You may want to rate the tab now too:
select rating
Wanna post a correction for this tab? Suggest correction