Oops, an error
Loading. Please wait.

Oh Melancolia Tab

version 1
version 1

Whole song

25 views 1 this week
no commentswrite comment
1 2 3 4 5
3 more votes to show rating
add to favorites
launch autoscroll
font size
0
reset
how to read this tab
guitar tuner
Autoscroll
slow
fast
+/-
esc
set tempo
stop
Help us to improve Ultimate-Guitar.com Take our survey!
×
Esta canción va dedicada muy especialmente A Karina P. S.
la chava más bonita del mundo que a lo mejor no piense en mi
como yo en ella (Pero de todas maneras se la dedico) y ojalá algún día
me pele.

INTRO:

          FA              DO                RE              FA
e|-----------------------------------------------------------------||
B|-----------1---1-----------1---1------------3-2-2H3---1-------1--||
G|---------2---4-----------0---4------------2--------------2-0----0||
D|-------3---------------2-----------0--0H3------------------------||
A|-----3---------------3-------------------------------------3-----||
E|-1---------------0------------------------------------1----------||

         SOL                    Bb                   FA
e|------------------------------1---1-----------------------------||
B|------------0-3-2-3---------3---4---3---------------1------1--1-||
G|----------0---------------3-----------3-----------2----4--------||
D|--------0---------------3---------------3-------3---------------||
A|---------------------1------------------------3----------3----3-||
E|-0H2-3-------------------------------------1--------------------||

          DO
e|-----------------------||
B|--------1--------------||
G|------0---4-3--2-------||
D|----2------------------||
A|--3--------------------||
E|---------------1-------||


FA                         C
Hoy viene a mi la damisela soledad
                         IV   Dm
con pamela impertinentes y botón
                         A7            Bb
de amapola en el oleaje de sus vuelos,
Bb                             F
hoy la voluble señorita es amistad
                           G7
y acaricia finamente el corazón
                              C  C7  C
con su más delgado pétalo de hielo.
         F                               C
Por eso hoy, gentilmente te convido a pasear
                                   Dm
por el patio hasta el florido pabellón
                                     A7
de aquel árbol que plantaron los abuelos,
Bb                                       F
hoy el ensueño es como el musgo en el brocal
                             G7
dibujando los abismos de mi amor
                            C  C7  C
melancólico, sutil, pálido cielo.


F              G     Em          C     Dm
Viene a mí avanza, viene tan despacio,
              C    G     Gm   Bb
 viene en una danza, leve del espacio
F              G          Gm    C     Dm     Am
cedo, me hago lacio y ya vuelo ave,      se mece la nave
Bm7  E7     Am        Bb             F    G7         C
lenta como el tul,    en la brisa suave, niña del azul . . .
        DO
e|--------------------------------------||
B|--------1-----------1-----------1-----||
G|------0---4------0----3-------0---2---||
D|----2----------2------------2---------||
A|--3----------3------------3-----------||
E|----------------------------------1---||

F              C               Dm
Oh melancolía, novia silenciosa,
               F   (V 0,2,3) C (VI 0,2,3) G
íntima pareja del ayer,

G              D           Em
oh melancolía, amante dichosa,
                    G    D   Bb
siempre me arrebata tu placer,

F           C               Dm
oh melancolía, señora del tiempo,
                 F       C   B
beso que retorna como el mar,


A             E               F#m
oh melancolía, rosa del aliento,
                B7    E     C
dime quien me puede amar.


F                           C
Hoy viene a mi la damisela soledad,
                             Dm
con pamela impertinentes y botón
                               A7
de amapola en el oleaje de sus vuelos,
Bb                             F
hoy la voluble señorita es amistad
                           G7
y acaricia finamente el corazón
                               C  C7  C
con su más delgado pétalo de hielo.
          F                C                  Dm
Por eso hoy, oh melancolía, señora del tiempo,
                 F   (V 0,2,3) C (VI 0,2,3) G
beso que retorna como el mar,
G             Bb                F
oh melancolía, rosa del aliento,
  Gm             C   F
dime quien me puede amar.

FINAL:

         FA             DO
e|-------------------------------------------------||
B|---------1---1----------1---1-----------1---1----||
G|-------2---4----------0---4-----------2---4----- || FA rasgueo suave
D|-----3--------------2---------------3------------||
A|---3--------------3---------------3--------------||
E|-1-------------0---------------1-----------------||


QUISIERA QUE SI ALGUIEN POR ERROR TIENE LA CANCION DE 'EN ESTOS DIAS' Y LA DE 'OH
MELANCOLIA'(EN MP3 LAS VERSIONES EN VIVO) POR FAVOR ME ESCRIBAN A MI MAIL Y YO LES
PUEDO MANDAR MUCHAS CANCIONES INEDITAS DE SILVIO QUE TENGO.

GRACIAS
Suggest correction
Give kudos to tab author, rate the tab!
1 2 3 4 5
comments
print report bad tab
guest
You may want to rate the tab now too:
select rating
Wanna post a correction for this tab? Suggest correction