Oops, an error
Loading. Please wait.

Ojalá Tab

version 5
version 5

Interactive

823 views 9 this week
no commentswrite comment
1 2 3 4 5
x 5
add to favorites
launch autoscroll
font size
0
reset
how to read this tab
guitar tuner
Autoscroll
slow
fast
+/-
esc
set tempo
stop
Help us to improve Ultimate-Guitar.com Take our survey!
×
**********************************
por:  Roberto S. Zárate Hernández
**********************************

Aqui esta esta versión, no le falta ni le sobra, y porfavor agradecería 
sus críticas, y/o sus opiniones, ya que es mi primera canción.

Estos son los riff.

Riff1
1|--------10------|--------9-------|--------8-------|--------7-------|E
2|------10----10--|------10----10--|------10----10--|------10----10--|B
3|----10----10----|----10----10----|----10----10----|----10----10----|G
4|--0-------------|--0-------------|--0-------------|--0-------------|d
5|----------------|----------------|----------------|----------------|a
6|----------------|----------------|----------------|----------------|e

Riff2
1|--------8-------|--------8-------|--------8-------|--------8-------|E
2|------8-----8---|------8-----8---|------8-----8---|------8-----8---|B
3|----9-----9-----|----9-----9-----|----9-----9-----|----9-----9-----|G
4|----------------|--10------------|----------------|--10------------|d
5|----------------|----------------|----------------|----------------|a
6|--8-------------|----------------|--8-------------|----------------|e

Riff3
1|--------7-------|--------7-------|--------5-------|--------5-------|--------5-------|--------4-------|E
2|------8-----8---|------8-----8---|------5-----5---|------5-----5---|------6-----6---|------5-----5---|B
3|----9-----9-----|----9-----9-----|----6-----6-----|----6-----6-----|----7-----7-----|----6-----6-----|G
4|----------------|--9-------------|----------------|--7-------------|----------------|----------------|d
5|--7-------------|----------------|----------------|----------------|--5-------------|--4-------------|a
6|----------------|----------------|--5-------------|----------------|----------------|----------------|e

Riff4
1|--------2-------|--------2-------|--------5-------|--------5-------|--------3-------|--------2-------|E
2|------3-----3---|------3-----3---|------5-----5---|------5-----5---|------3-----3---|------2-----2---|B
3|----4-----4-----|----4-----4-----|----6-----6-----|----6-----6-----|----4-----4-----|----3-----3-----|G
4|----------------|----------------|----------------|--7-------------|----------------|----------------|d
5|--2-------------|--0-------------|----------------|----------------|----------------|----------------|a
6|----------------|----------------|--5-------------|----------------|--3-------------|--2-------------|e

Riff5
1|--------2-------|--------2-------|--------0-------|------0-----0---|E
2|------3-----3---|------3-----3---|------0-----0---|----0-----0-----|B
3|----4-----4-----|----4-----4-----|----1-----1-----|--2-----1-------|G
4|----------------|----------------|----------------|----------------|d
5|--2-------------|--0-------------|----------------|----------------|a
6|----------------|----------------|--0-------------|----------------|e

1|--------1-------|--------1-------|--------0-------|--------1-------|E
2|------3-----3---|------3-----3---|------3-----3---|------3-----3---|B
3|----2-----2-----|----2-----2-----|----0-----0-----|----2-----2-----|G
4|--0-------------|----------------|----------------|----------------|d
5|----------------|--3-------------|--1-------------|--3-------------|a
6|----------------|----------------|----------------|----------------|e

Riff6

1|--------8-------|--------8-------|--------3-------|E
2|------9-----9---|------9-----9---|------3-----3---|B
3|----10----10----|----10----10----|----4-----4-----|G
4|----------------|--10------------|----------------|d
5|--8-------------|----------------|----------------|a
6|----------------|----------------|--3-------------|e

Intro 2 veces R1

    R1                                             R1  
      Ojalá que las hojas no te toquen el cuerpo cuando caigan,
    R2                                   R1   
      para que no las puedas convertir en cristal.
    R3                                                          R4
      Ojalá que la lluvia deje de ser milagro que baja por tu cuerpo.
                                      R5
      Ojalá que la luna pueda salir sin ti.
                                           R1
      Ojalá que la tierra no te bese los pasos.

    R1                              R2
      Ojalá se te acabe la mirada constante, 

      la palabra precisa, la sonrisa perfecta.
    R6                                  C
      Ojalá pase algo que te borre de pronto,
            E        Am       C        F 
      una luz cegadora, un disparo de nieve.
                    G                      C
      Ojalá por lo menos que me lleve la muerte,
            E        Am       C        F           
      para no verte tanto, para no verte siempre.
                     R1                     R2
      En todos los segundos, en todas las visiones.
    R3                                   R1            R1
      Ojalá que no pueda tocarte ni en canciones.

    R1                                        R1  
      Ojalá que la aurora, no de gritos que caigan en mi espalda.
    R2                                   R1   
      Ojalá que tu nombre, se le olvide a esa voz.
    R3                                                   R4
      Ojalá las paredes no retengan tu ruido de camino cansado.
                                   R5
      Ojalá que el deseo se vaya tras de ti,
                                          R1
      a tu viejo gobierno de difuntos y flores.

    R1                              R2      
      Ojalá se te acabe la mirada constante, 

      la palabra precisa, la sonrisa perfecta.
    R6                                  C
      Ojalá pase algo que te borre de pronto,
            E        Am       C        F 
      una luz cegadora, un disparo de nieve.
                    G                      C
      Ojalá por lo menos que me lleve la muerte,
            E        Am       C        F 
      para no verte tanto, para no verte siempre.
                    G                      C
      En todos los segundos, en todas las visiones.
            E        Am       C        F 
      Ojalá que no pueda tocarte ni en canciones.

                    G                      C
      Ojalá pase algo que te borre de pronto,
            E        Am       C        F       
      una luz cegadora, un disparo de nieve.
                    G                      C
      Ojalá por lo menos que me lleve la muerte,
            E        Am       C        F 
      para no verte tanto, para no verte siempre.
                     R1                     R2
      En todos los segundos, en todas las visiones.
    R3                                   R4              R1   R2
      Ojalá que no pueda tocarte ni en canciones.


*************************************************
Trancripcion por Roberto S. Zárate Hernández
E-mail; rszh@
ICQ # 60418708

Le dedico la transcripción a mis hermanos, mis amigos de la FESC, a ustedes que han 
estado siempre conmigo (CAA, JMMG)y en especial a tí, que me inspiraste para la 
realización de este proyecto, EDD. 
Para quien no la haya escuchado, me la puede pedir en formato mp3, (exclusivo FESC)
Suggest correction
comments
print report bad tab
guest
You may want to rate the tab now too:
select rating
Wanna post a correction for this tab? Suggest correction