Oops, an error
Loading. Please wait.

Ojalá Tab

version 6
version 6

Interactive

204 views 3 this week
no commentswrite comment
1 2 3 4 5
3 more votes to show rating
add to favorites
launch autoscroll
font size
0
reset
how to read this tab
guitar tuner
×
Best way to learn
"Ojalá"
Autoscroll
slow
fast
+/-
esc
set tempo
stop
OJALA (SILVIO RODRÍGUEZ)

BUENO ACÁ ESTA LA CORRECCIÓN A LA QUE MANDE ANTERIORMENTE ESTA SE TOCA EN COMPÁS
DE 6/8 (TRES CORCHEAS COMO SI FUERA UN TIEMPO) A UN TIEMPO DE 60 EN METRÓNOMO
PARA LA PARTITURA. EN ESTE CASO PARA LA TABLATURA SE HACE EN 2/4 (COMO LO DIVIDÍ)
Y CADA TRES NOTAS UN TRISILLO. DUDAS O COMENTARIOS ELKINURU87@

--|-Dm*---------------|-Dm7maj----------|-Dm7-------------|-Dm6maj----------|
E-|----------10-------|---------9-------|---------8-------|---------7-------|
B-|-------10-------10-|------10------10-|------10------10-|------10------10-|  Intro
G-|----10-------10----|---10------10----|---10------10----|---10------10----|   x 2
D-|-0-----------------|-0---------------|-0---------------|-0---------------|
A-|-------------------|-----------------|-----------------|-----------------|
E-|-------------------|-----------------|-----------------|-----------------|

--|-Dm*---------------|-Dm7maj----------|-Dm7-------------|-Dm6maj----------|
E-|----------10-------|---------9-------|---------8-------|---------7-------|
B-|-------10-------10-|------10------10-|------10------10-|------10------10-|
G-|----10-------10----|---10------10----|---10------10----|---10------10----|
D-|-0-----------------|-0---------------|-0---------------|-0---------------|
A-|-------------------|-----------------|-----------------|-----------------|
E-|-------------------|-----------------|-----------------|-----------------|

--|-Dm*---------------|-Dm7maj----------|-Dm7-------------|-Dm6maj----------|
E-|----------10-------|---------9-------|---------8-------|---------7-------|
B-|-------10-------10-|------10------10-|------10------10-|------10------10-|
G-|----10-------10----|---10------10----|---10------10----|---10------10----|
D-|-0-----------------|-0---------------|-0---------------|-0---------------|
A-|-------------------|-----------------|-----------------|-----------------|
E-|-------------------|-----------------|-----------------|-----------------|

--|-C*----------|-C*-----------|-C*----------|-C*-----------|
E-|-------8-----|--------8-----|-------8-----|--------8-----|
B-|-----8-----8-|------8-----8-|-----8-----8-|------8-----8-|
G-|---9-----9---|----9-----9---|---9-----9---|----9-----9---|
D-|-------------|-10-----------|-------------|-10-----------|
A-|-------------|--------------|-------------|--------------|
E-|-8-----------|--------------|-8-----------|--------------|

--|-Dm*---------------|-Dm7maj----------|-Dm7-------------|-Dm6maj----------|
E-|----------10-------|---------9-------|---------8-------|---------7-------|
B-|-------10-------10-|------10------10-|------10------10-|------10------10-|
G-|----10-------10----|---10------10----|---10------10----|---10------10----|
D-|-0-----------------|-0---------------|-0---------------|-0---------------|
A-|-------------------|-----------------|-----------------|-----------------|
E-|-------------------|-----------------|-----------------|-----------------|

--|-Em*---------|-Em*---------|-A-----------|-A-----------|
E-|-------7-----|-------7-----|-------5-----|-------5-----|
B-|-----8-----8-|-----8-----8-|-----5-----5-|-----5-----5-|
G-|---9-----9---|---9-----9---|---6-----6---|---6-----6---|
D-|-------------|-9-----------|-------------|-7-----------|
A-|-7-----------|-------------|-------------|-------------|
E-|-------------|-------------|-5-----------|-------------|

--|-D-----------|-F#m---------|-Bm----------|-Bm7---------|
E-|-------5-----|-------3-----|-------2-----|-------2-----|
B-|-----7-----7-|-----3-----3-|-----3-----3-|-----3-----3-|
G-|---7-----7---|---3-----3---|---4-----4---|---4-----4---|
D-|-------------|-4-----------|-------------|-------------|
A-|-5-----------|-------------|-2-----------|-0-----------|
E-|-------------|-------------|-------------|-------------|


--|-A-----------|-A-----------|-G-----------|-F#----------|
E-|-------5-----|-------5-----|-------3-----|-------2-----|
B-|-----5-----5-|-----5-----5-|-----3-----3-|-----2-----2-|
G-|---6-----6---|---6-----6---|---4-----4---|---3-----3---|
D-|-------------|-7-----------|-------------|-------------|
A-|-------------|-------------|-------------|-------------|
E-|-5-----------|-------------|-3-----------|-2-----------|

--|-Bm----------|-Bm7---------|-E-----------|-E4----------|
E-|-------2-----|-------2-----|-------0-----|-----0-----0-|
B-|-----3-----3-|-----3-----3-|-----0-----0-|---0-----0---|
G-|---4-----4---|---4-----4---|---1-----1---|-2-----1-----|
D-|-------------|-------------|-------------|-------------|
A-|-2-----------|-0-----------|-------------|-------------|
E-|-------------|-------------|-0-----------|-------------|


--|-Dm----------|-Dm7---------|-6maj--------|-A4----------|
E-|-------1-----|-------1-----|-------0-----|-------0-----|
B-|-----3-----3-|-----3-----3-|-----3-----3-|-----2-----2-|
G-|---2-----2---|---2-----2---|---0-----0---|---2-----2---|
D-|-0-----------|-------------|-------------|-------------|
A-|-------------|-3-----------|-1-----------|-0-----------|
E-|-------------|-------------|-------------|-------------|

--|-Dm*---------------|-Dm7maj----------|-Dm7-------------|-Dm6maj----------|
E-|----------10-------|---------9-------|---------8-------|---------7-------|
B-|-------10-------10-|------10------10-|------10------10-|------10------10-|  Intro
G-|----10-------10----|---10------10----|---10------10----|---10------10----|   x 2
D-|-0-----------------|-0---------------|-0---------------|-0---------------|
A-|-------------------|-----------------|-----------------|-----------------|
E-|-------------------|-----------------|-----------------|-----------------|

--|-Dm*---------------|-Dm7maj----------|-Dm7-------------|-Dm6maj----------|
E-|----------10-------|---------9-------|---------8-------|---------7-------|
B-|-------10-------10-|------10------10-|------10------10-|------10------10-|
G-|----10-------10----|---10------10----|---10------10----|---10------10----|
D-|-0-----------------|-0---------------|-0---------------|-0---------------|
A-|-------------------|-----------------|-----------------|-----------------|
E-|-------------------|-----------------|-----------------|-----------------|

--|-C*----------|-C*-----------|-C*----------|-C*-----------|
E-|-------8-----|--------8-----|-------8-----|--------8-----|
B-|-----8-----8-|------8-----8-|-----8-----8-|------8-----8-|
G-|---9-----9---|----9-----9---|---9-----9---|----9-----9---|
D-|-------------|-10-----------|-------------|-10-----------|
A-|-------------|--------------|-------------|--------------|
E-|-8-----------|--------------|-8-----------|--------------|

--|-Fm------------|-Fm-------------|-G-----------|-G-----------|
E-|--------8------|---------8------|-------3-----|-------3-----|
B-|------9------9-|-------9------9-|-----3-----3-|-----3-----3-|
G-|---10-----10---|----10-----10---|---4-----4---|---4-----4---|
D-|---------------|-10-------------|-------------|-5-----------|
A-|-8-------------|----------------|-------------|-------------|
E-|---------------|----------------|-3-----------|-------------|

--|-C-----------|-E-----------|-Am----------|.Am7---------|
E-|-------0-----|-------0-----|-------0-----|-------0-----|
B-|-----1-----1-|-----0-----0-|-----1-----1-|-----1-----1-|
G-|---0-----0---|---1-----1---|---2-----2---|---2-----2---|
D-|-------------|-------------|-------------|-------------|
A-|-3-----------|-------------|-0-----------|-------------|
E-|-------------|-0-----------|-------------|-3-----------|

--|-F-----------|-F-----------|-G-----------|-G-----------|
E-|-------1-----|-------1-----|-------3-----|-------3-----|
B-|-----1-----1-|-----1-----1-|-----3-----3-|-----3-----3-|
G-|---2-----2---|---2-----2---|---4-----4---|---4-----4---|
D-|-------------|-3-----------|-------------|-5-----------|
A-|-------------|-------------|-------------|-------------|
E-|-1-----------|-------------|-3-----------|-------------|

--|-C-----------|-E-----------|-Am----------|.Am7---------|
E-|-------0-----|-------0-----|-------0-----|-------0-----|
B-|-----1-----1-|-----0-----0-|-----1-----1-|-----1-----1-|
G-|---0-----0---|---1-----1---|---2-----2---|---2-----2---|
D-|-------------|-------------|-------------|-------------|
A-|-3-----------|-------------|-0-----------|-------------|
E-|-------------|-0-----------|-------------|-3-----------|

--|-F-----------|-F-----------|
E-|-------1-----|-------1-----|
B-|-----1-----1-|-----1-----1-|
G-|---2-----2---|---2-----2---|
D-|-------------|-3-----------|
A-|-------------|-------------|
E-|-1-----------|-------------|

--|-Dm*---------------|-Dm7maj----------|-Dm7-------------|-Dm6maj----------|
E-|----------10-------|---------9-------|---------8-------|---------7-------|
B-|-------10-------10-|------10------10-|------10------10-|------10------10-|
G-|----10-------10----|---10------10----|---10------10----|---10------10----|
D-|-0-----------------|-0---------------|-0---------------|-0---------------|
A-|-------------------|-----------------|-----------------|-----------------|
E-|-------------------|-----------------|-----------------|-----------------|

--|-C*----------|-C*-----------|-C*----------|-C*-----------|
E-|-------8-----|--------8-----|-------8-----|--------8-----|
B-|-----8-----8-|------8-----8-|-----8-----8-|------8-----8-|
G-|---9-----9---|----9-----9---|---9-----9---|----9-----9---|
D-|-------------|-10-----------|-------------|-10-----------|
A-|-------------|--------------|-------------|--------------|
E-|-8-----------|--------------|-8-----------|--------------|

--|-Fm------------|-Fm-------------|
E-|--------8------|---------8------|
B-|------9------9-|-------9------9-|
G-|---10-----10---|----10-----10---|
D-|---------------|-10-------------|
A-|-8-------------|----------------|
E-|---------------|----------------|

--|-G-----------|-G-----------|-G-----------|-G-----------|
E-|-------3-----|-------3-----|-------3-----|-------3-----|
B-|-----3-----3-|-----3-----3-|-----3-----3-|-----3-----3-|
G-|---4-----4---|---4-----4---|---4-----4---|---4-----4---|
D-|-------------|-5-----------|-------------|-5-----------|
A-|-------------|-------------|-------------|-------------|
E-|-3-----------|-------------|-3-----------|-------------|

--|-Dm*---------------|-Dm7maj----------|-Dm7-------------|-Dm6maj----------|
E-|----------10-------|---------9-------|---------8-------|---------7-------|
B-|-------10-------10-|------10------10-|------10------10-|------10------10-|  Intro
G-|----10-------10----|---10------10----|---10------10----|---10------10----|   x 2
D-|-0-----------------|-0---------------|-0---------------|-0---------------|
A-|-------------------|-----------------|-----------------|-----------------|
E-|-------------------|-----------------|-----------------|-----------------|

--|-Dm*---------------|-Dm7maj----------|-Dm7-------------|-Dm6maj----------|
E-|----------10-------|---------9-------|---------8-------|---------7-------|
B-|-------10-------10-|------10------10-|------10------10-|------10------10-|
G-|----10-------10----|---10------10----|---10------10----|---10------10----|
D-|-0-----------------|-0---------------|-0---------------|-0---------------|
A-|-------------------|-----------------|-----------------|-----------------|
E-|-------------------|-----------------|-----------------|-----------------|

--|-Dm*---------------|-Dm7maj----------|-Dm7-------------|-Dm6maj----------|
E-|----------10-------|---------9-------|---------8-------|---------7-------|
B-|-------10-------10-|------10------10-|------10------10-|------10------10-|
G-|----10-------10----|---10------10----|---10------10----|---10------10----|
D-|-0-----------------|-0---------------|-0---------------|-0---------------|
A-|-------------------|-----------------|-----------------|-----------------|
E-|-------------------|-----------------|-----------------|-----------------|

--|-C*----------|-C*-----------|-C*----------|-C*-----------|
E-|-------8-----|--------8-----|-------8-----|--------8-----|
B-|-----8-----8-|------8-----8-|-----8-----8-|------8-----8-|
G-|---9-----9---|----9-----9---|---9-----9---|----9-----9---|
D-|-------------|-10-----------|-------------|-10-----------|
A-|-------------|--------------|-------------|--------------|
E-|-8-----------|--------------|-8-----------|--------------|

--|-Dm*---------------|-Dm7maj----------|-Dm7-------------|-Dm6maj----------|
E-|----------10-------|---------9-------|---------8-------|---------7-------|
B-|-------10-------10-|------10------10-|------10------10-|------10------10-|
G-|----10-------10----|---10------10----|---10------10----|---10------10----|
D-|-0-----------------|-0---------------|-0---------------|-0---------------|
A-|-------------------|-----------------|-----------------|-----------------|
E-|-------------------|-----------------|-----------------|-----------------|

--|-Em*---------|-Em*---------|-A-----------|-A-----------|
E-|-------7-----|-------7-----|-------5-----|-------5-----|
B-|-----8-----8-|-----8-----8-|-----5-----5-|-----5-----5-|
G-|---9-----9---|---9-----9---|---6-----6---|---6-----6---|
D-|-------------|-9-----------|-------------|-7-----------|
A-|-7-----------|-------------|-------------|-------------|
E-|-------------|-------------|-5-----------|-------------|

--|-D-----------|-F#m---------|-Bm----------|-Bm7---------|
E-|-------5-----|-------3-----|-------2-----|-------2-----|
B-|-----7-----7-|-----3-----3-|-----3-----3-|-----3-----3-|
G-|---7-----7---|---3-----3---|---4-----4---|---4-----4---|
D-|-------------|-4-----------|-------------|-------------|
A-|-5-----------|-------------|-2-----------|-0-----------|
E-|-------------|-------------|-------------|-------------|

--|-A-----------|-A-----------|-G-----------|-F#----------|
E-|-------5-----|-------5-----|-------3-----|-------2-----|
B-|-----5-----5-|-----5-----5-|-----3-----3-|-----2-----2-|
G-|---6-----6---|---6-----6---|---4-----4---|---3-----3---|
D-|-------------|-7-----------|-------------|-------------|
A-|-------------|-------------|-------------|-------------|
E-|-5-----------|-------------|-3-----------|-2-----------|

--|-Bm----------|-Bm7---------|-E-----------|-E4----------|
E-|-------2-----|-------2-----|-------0-----|-----0-----0-|
B-|-----3-----3-|-----3-----3-|-----0-----0-|---0-----0---|
G-|---4-----4---|---4-----4---|---1-----1---|-2-----1-----|
D-|-------------|-------------|-------------|-------------|
A-|-2-----------|-0-----------|-------------|-------------|
E-|-------------|-------------|-0-----------|-------------|

--|-Dm----------|-Dm7---------|-6maj--------|-A4----------|
E-|-------1-----|-------1-----|-------0-----|-------0-----|
B-|-----3-----3-|-----3-----3-|-----3-----3-|-----2-----2-|
G-|---2-----2---|---2-----2---|---0-----0---|---2-----2---|
D-|-0-----------|-------------|-------------|-------------|
A-|-------------|-3-----------|-1-----------|-0-----------|
E-|-------------|-------------|-------------|-------------|

--|-Dm*---------------|-Dm7maj----------|-Dm7-------------|-Dm6maj----------|
E-|----------10-------|---------9-------|---------8-------|---------7-------|
B-|-------10-------10-|------10------10-|------10------10-|------10------10-|
G-|----10-------10----|---10------10----|---10------10----|---10------10----|
D-|-0-----------------|-0---------------|-0---------------|-0---------------|
A-|-------------------|-----------------|-----------------|-----------------|
E-|-------------------|-----------------|-----------------|-----------------|

--|-Dm*---------------|-Dm7maj----------|-Dm7-------------|-Dm6maj----------|
E-|----------10-------|---------9-------|---------8-------|---------7-------|
B-|-------10-------10-|------10------10-|------10------10-|------10------10-|
G-|----10-------10----|---10------10----|---10------10----|---10------10----|
D-|-0-----------------|-0---------------|-0---------------|-0---------------|
A-|-------------------|-----------------|-----------------|-----------------|
E-|-------------------|-----------------|-----------------|-----------------|

--|-C*----------|-C*-----------|-C*----------|-C*-----------|
E-|-------8-----|--------8-----|-------8-----|--------8-----|
B-|-----8-----8-|------8-----8-|-----8-----8-|------8-----8-|
G-|---9-----9---|----9-----9---|---9-----9---|----9-----9---|
D-|-------------|-10-----------|-------------|-10-----------|
A-|-------------|--------------|-------------|--------------|
E-|-8-----------|--------------|-8-----------|--------------|

--|-Fm------------|-Fm-------------|-G-----------|-G-----------|
E-|--------8------|---------8------|-------3-----|-------3-----|
B-|------9------9-|-------9------9-|-----3-----3-|-----3-----3-|
G-|---10-----10---|----10-----10---|---4-----4---|---4-----4---|
D-|---------------|-10-------------|-------------|-5-----------|
A-|-8-------------|----------------|-------------|-------------|
E-|---------------|----------------|-3-----------|-------------|

--|-C-----------|-E-----------|-Am----------|.Am7---------|
E-|-------0-----|-------0-----|-------0-----|-------0-----|
B-|-----1-----1-|-----0-----0-|-----1-----1-|-----1-----1-|
G-|---0-----0---|---1-----1---|---2-----2---|---2-----2---|
D-|-------------|-------------|-------------|-------------|
A-|-3-----------|-------------|-0-----------|-------------|
E-|-------------|-0-----------|-------------|-3-----------|

--|-F-----------|-F-----------|-G-----------|-G-----------|
E-|-------1-----|-------1-----|-------3-----|-------3-----|
B-|-----1-----1-|-----1-----1-|-----3-----3-|-----3-----3-|
G-|---2-----2---|---2-----2---|---4-----4---|---4-----4---|
D-|-------------|-3-----------|-------------|-5-----------|
A-|-------------|-------------|-------------|-------------|
E-|-1-----------|-------------|-3-----------|-------------|

--|-C-----------|-E-----------|-Am----------|.Am7---------|
E-|-------0-----|-------0-----|-------0-----|-------0-----|
B-|-----1-----1-|-----0-----0-|-----1-----1-|-----1-----1-|
G-|---0-----0---|---1-----1---|---2-----2---|---2-----2---|
D-|-------------|-------------|-------------|-------------|
A-|-3-----------|-------------|-0-----------|-------------|
E-|-------------|-0-----------|-------------|-3-----------|

--|-F-----------|-F-----------|-G-----------|-G-----------|
E-|-------1-----|-------1-----|-------3-----|-------3-----|
B-|-----1-----1-|-----1-----1-|-----3-----3-|-----3-----3-|
G-|---2-----2---|---2-----2---|---4-----4---|---4-----4---|
D-|-------------|-3-----------|-------------|-5-----------|
A-|-------------|-------------|-------------|-------------|
E-|-1-----------|-------------|-3-----------|-------------|

--|-C-----------|-E-----------|-Am----------|.Am7---------|
E-|-------0-----|-------0-----|-------0-----|-------0-----|
B-|-----1-----1-|-----0-----0-|-----1-----1-|-----1-----1-|
G-|---0-----0---|---1-----1---|---2-----2---|---2-----2---|
D-|-------------|-------------|-------------|-------------|
A-|-3-----------|-------------|-0-----------|-------------|
E-|-------------|-0-----------|-------------|-3-----------|

--|-F-----------|-F-----------|-G-----------|-G-----------|
E-|-------1-----|-------1-----|-------3-----|-------3-----|
B-|-----1-----1-|-----1-----1-|-----3-----3-|-----3-----3-|
G-|---2-----2---|---2-----2---|---4-----4---|---4-----4---|
D-|-------------|-3-----------|-------------|-5-----------|
A-|-------------|-------------|-------------|-------------|
E-|-1-----------|-------------|-3-----------|-------------|

--|-C-----------|-E-----------|-Am----------|.Am7---------|
E-|-------0-----|-------0-----|-------0-----|-------0-----|
B-|-----1-----1-|-----0-----0-|-----1-----1-|-----1-----1-|
G-|---0-----0---|---1-----1---|---2-----2---|---2-----2---|
D-|-------------|-------------|-------------|-------------|
A-|-3-----------|-------------|-0-----------|-------------|
E-|-------------|-0-----------|-------------|-3-----------|

--|-F-----------|-F-----------|
E-|-------1-----|-------1-----|
B-|-----1-----1-|-----1-----1-|
G-|---2-----2---|---2-----2---|
D-|-------------|-3-----------|
A-|-------------|-------------|
E-|-1-----------|-------------|

--|-Dm*---------------|-Dm7maj----------|-Dm7-------------|-Dm6maj----------|
E-|----------10-------|---------9-------|---------8-------|---------7-------|
B-|-------10-------10-|------10------10-|------10------10-|------10------10-|
G-|----10-------10----|---10------10----|---10------10----|---10------10----|
D-|-0-----------------|-0---------------|-0---------------|-0---------------|
A-|-------------------|-----------------|-----------------|-----------------|
E-|-------------------|-----------------|-----------------|-----------------|

--|-C*----------|-C*-----------|-C*----------|-C*-----------|
E-|-------8-----|--------8-----|-------8-----|--------8-----|
B-|-----8-----8-|------8-----8-|-----8-----8-|------8-----8-|
G-|---9-----9---|----9-----9---|---9-----9---|----9-----9---|
D-|-------------|-10-----------|-------------|-10-----------|
A-|-------------|--------------|-------------|--------------|
E-|-8-----------|--------------|-8-----------|--------------|

--|-Fm------------|-Fm-------------|
E-|--------8------|---------8------|
B-|------9------9-|-------9------9-|
G-|---10-----10---|----10-----10---|
D-|---------------|-10-------------|
A-|-8-------------|----------------|
E-|---------------|----------------|

--|-G-----------|-G-----------|-G-----------|-G-----------|
E-|-------3-----|-------3-----|-------3-----|-------3-----|
B-|-----3-----3-|-----3-----3-|-----3-----3-|-----3-----3-|
G-|---4-----4---|---4-----4---|---4-----4---|---4-----4---|
D-|-------------|-5-----------|-------------|-5-----------|
A-|-------------|-------------|-------------|-------------|
E-|-3-----------|-------------|-3-----------|-------------|

la canción es igual a excepción del final que es así:

--|-C-----------|-C7maj-------|-Am----------|-Am7---------|
E-|-------0-----|-------0-----|-------0-----|-------0-----|
B-|-----1-----1-|-----1-----1-|-----1-----1-|-----1-----1-|
G-|---0-----0---|---0-----0---|---2-----2---|---2-----2---|
D-|-------------|-------------|-------------|-------------|
A-|-3-----------|-2-----------|-0-----------|-------------|
E-|-------------|-------------|-------------|-3-----------|

--|-F-----------|-Em----------|
E-|-------1-----|-------0-----|
B-|-----1-----1-|-----0-----0-|
G-|---2-----2---|---0-----0---|
D-|-------------|-------------|
A-|-------------|-------------|
E-|-1-----------|-0-----------|

--|-Dm*---------------|-Dm7maj----------|-Dm7-------------|-Dm6maj----------|
E-|----------10-------|---------9-------|---------8-------|---------7-------|
B-|-------10-------10-|------10------10-|------10------10-|------10------10-|
G-|----10-------10----|---10------10----|---10------10----|---10------10----|
D-|-0-----------------|-0---------------|-0---------------|-0---------------|
A-|-------------------|-----------------|-----------------|-----------------|
E-|-------------------|-----------------|-----------------|-----------------|

                  Rit.
--|-C*----------|-C*-----------|-C*----------------|-C*---------|
E-|-------8-----|--------8-----|-------------------|-8----------|
B-|-----8-----8-|------8-----8-|---------10--------|-8----------|
G-|---9-----9---|----9-----9---|-------9-------9---|-9----------|
D-|-------------|-10-----------|----10------10-----|------------|
A-|-------------|--------------|-------------------|------------|
E-|-8-----------|--------------|--8----------------|------------|


(1)
Dm*          Dm7   Dm7           Dm6       Dm7*
Ojala que las hojas    No te toquen el cuerpo
          Dm7   Dm7  Dm6  C*
cuando caigan                   Para que no las puedas
                 Dm*  Dm7   Dm7  Dm6  Em*               A*
Convertir en cristal                      Ojala que la lluvia
               D*    F#m            Bm  Bm7  A*
Deje de ser milagro Que baja por tu cuerpo
          G         F#       Bm     Bm7  E  E4  E  Dm
Ojala que luna Pueda salir sin ti
   Dm7       Gm6          A        Dm*  Dm7   Dm7  Dm6
Ojala que la tierra No te bese los pasos

(2)
Dm*     Dm7    Dm7       Dm6    C*
Ojala se te acabe La mirada constante
                             F#m*
La palabra precisa La sonrisa perfecta

(3)
           G                         C
ojala pase algo Que te borre de pronto
     E      Am             Am7     F
Una luz segadora Un disparo de nieve


             G                         C
Ojala por lo menos Que me lleve la muerte
     E        Am        Am7       F
Para no verte tanto Para no verte siempre
              Dm*   Dm7   Dm7           Dm6    C*     F#m*
En todos los segundos         En todas las visiones
             G                      Dm*     Dm7   Dm7  Dm6
Ojala que no pueda Tocarte ni en canciones


(1)
ojala que la aurora no den gritos
que caigan en mi espalda ojala que tu nombre
Se le olvide a esa voz Ojala las paredes
No te retengan tu ruido De camino cansado
Ojala que el deseo Se vaya tras de ti
A tu viejo gobierno De difuntos y flores

(2)
[3] Bis       NO SE PUEDE SUPERAR LO PERFECTO. ELKIN URUEÑA

---Dm*--Dm7+--Dm7--Dm6---C*---Em*--A*---D*---

E---10----9----8----7----8----7----5----5----
B---10---10---10---10----8----8----5----7----
G---10---10---10---10----9----9----6----7----
D----x----x----x----x---10----9----7----7----
A----x----x----x----x---10----7----7----5----
E----x----x----x----x----8----7----5----5----


----Fm#--Bm---Bm7---G----F#----E---E4---Dm---Dm7--Gm6maj-

E----2----2----2----3----2----0----0----1----1----0-----
B----2----3----3----3----2----0----0----3----2----3-----
G----2----4----4----4----3----1----2----2----3----0-----
D----4----4----4----5----4----2----2----0----0----0-----
A----4----2----0----5----4----2----2----0----3----1-----
E----2----2----x----3----2----0----0----x----x----x-----


-----A4---C----Fm*--Am---Am7---F--C7maj--Em---

E----0----0-----8----0----0----1----0----0----      Rit: retardando
B----2----1-----9----1----1----1----1----0----      se hace mas lento
G----2----0----10----2----2----2----0----0----
D----2----2----10----2----2----3----3----2----
A----0----3-----8----0----0----3----2----2----
E----0----3-----8----0----3----1----x----0----

Dedicado a mis amigos de Granada Meta por que a pesar de lo ocupado que
Mantengo a un sigo ensayando. A, esto quedo perfecto por eso cuando la toquen
Me dan el credito. Dudas o comentarios escriban a Elkinuru87@
Suggest correction
Give kudos to tab author, rate the tab!
1 2 3 4 5
comments
print report bad tab
guest
You may want to rate the tab now too:
select rating
Wanna post a correction for this tab? Suggest correction