Oops, an error
Loading. Please wait.

Paloma Mía Chords

version 2
version 2

Whole song

23 views 1 this week
no commentswrite comment
1 2 3 4 5
3 more votes to show rating
add to favorites
launch autoscroll
font size
0
reset
transpose
0
reset
simplify chords
display chords
guitar tuner
Autoscroll
slow
fast
+/-
esc
set tempo
stop
Help us to improve Ultimate-Guitar.com Take our survey!
×
Intro:
Am E

Am                     E
Junto a tu cuello de porcelana
Am                     E
Yo me tendiera paloma mia
C                     G
Quien lo pudiera besar un día
C      Am               G
Quien lo posara sobre tu cama
Dm                     Am
Junto a tu boca de fina grana
E      E/D      A
Yo me durmiera, paloma mia

     ---------------
     ---6--5--3--
     ---------------
     ---------------
     ---5--4--2--
     --------------
Dm            Am
Si me quisieras cuanto querria
     ---------------
     ---3--1--0--
     ---------------
     ---------------
     ---2--0------
     ----------3---               Am
Paloma rosa me mis mañanas

C                     E
Junto a tu cuello de porcelana
Dm                     Am
Yo me tendiera paloma mia
C                    F
Quien lo pudiera besar un día
B7                    E
Quien lo posara sobre tu cama
(VI 0-1)G           F                E
Quien lo posara sobre tu cama
Am                       G
Digo tu nombre todas los dias
E                       Am
Digo tu nombre paloma amada
Dm                      Am
Porque tu boca la más soñada
B7                      E
Porque tu cuello y la lejania
(VI 0-1)G           F                E
Porque tu cuello y la lejania

Am                     E
Junto a tu cuello de porcelana
Am                     E
Yo me tendiera paloma mia
C                     G
Quien lo pudiera besar un día
C      Am               G
Quien lo posara sobre tu cama
Dm                     Am
Junto a tu boca de fina grana
E      E/D      A
Yo me durmiera, paloma mia

     ---------------
     ---6--5--3--
     ---------------
     ---------------
     ---5--4--2--
     --------------
Dm            Am
Si me quisieras cuanto querria
G C E               Am
Paloma rosa me mis mañanas

ACLARACAIONES:
La intro y en algunas partes se arpegia asi:

Am            E
---------5-----------------4-----------4-----------
--5---5---5-----5-----------5-----5----5----5--
----5---------5------------------4----------4-----
-----------------------------------------------------
-----------------------------------------------------
---------------------------7------------------------

El B7 queda mejor en esta posicion:
X 2 1 2 2 X

Suerte!
Suggest correction
Give kudos to tab author, rate the tab!
1 2 3 4 5
comments
print report bad tab
guest
You may want to rate the tab now too:
select rating
Wanna post a correction for this tab? Suggest correction