Oops, an error
Loading. Please wait.

Pequeña Serenata Diurna Tab

version 1
version 1

Whole song

178 views 6 this week
no commentswrite comment
1 2 3 4 5
3 more votes to show rating
add to favorites
launch autoscroll
font size
0
reset
how to read this tab
guitar tuner
Autoscroll
slow
fast
+/-
esc
set tempo
stop
Help us to improve Ultimate-Guitar.com Take our survey!
×
PUES AQUI ESTA ESTA ROLA DEL MAESTRO ROGRIGUEZ
ESPERO LES SEA UTIL Y LES GUSTE, UN SALUDO A MIS CAMARADAS
TROVEROS.

E||-----<12>--------|----------------------|--------7--|
B||---------<12>----|--13-12-10-12-9-------|-7-8-10----|
G||-------------<12>|-----------------9-8-9|-----------|
D||-----------------|----------------------|-----------|
A||-----------------|----------------------|-----------|
E||-<12>------------|----------------------|-----------|


||--10-8-10-8-7h8p7-|----7-10/12-10-8-7----|-----------|
||------------------|-10----------------8--|---7-7h8-7-|
||------------------|----------------------|-9---------|
||------------------|----------------------|-----------|
||------------------|----------------------|-----------|
||------------------|----------------------|-----------|

||------------------|7h8p7----7-10-8h10p8p7|----10-8h10p8h7--|
||----7-7h8-7-8-10--|------10--------------|-10------------10|
||--9---------------|----------------------|-----------------|
||------------------|----------------------|-----------------|
||------------------|----------------------|-----------------|
||------------------|----------------------|-----------------|

||------------------|----------------------|------|
||------7-7-7h8p7---|--8-7---7-------------|------|
||----------------9-|------9---9-8---------|------|
||------------------|--------------9-7-----|------|
||------------------|------------------10--|------|
||------------------|----------------------|------|

E-||----------|| |-------|---------|----(7----|-------|---------|
B-||----------|| |-------|---------|----)7----|-------|---------|
G-||--repite--|| |--5/7--|--10p12--|----(5----|--1h4--|--<12>---|
D-||----------|| |-------|---------|----)6----|-------|---------|
A-||----------|| |-------|---------|----(6----|-------|---------|
E-||----------|| |-------|---------|----)7----|-------|---------|
                  desliza   jala     arpegiado  Hammer Armónico
Suggest correction
Give kudos to tab author, rate the tab!
1 2 3 4 5
comments
print report bad tab
guest
You may want to rate the tab now too:
select rating
Wanna post a correction for this tab? Suggest correction