Oops, an error
Loading. Please wait.

Pequeña Serenata Diurna Tab

version 2
version 2

Whole song

157 views 3 this week
no commentswrite comment
1 2 3 4 5
3 more votes to show rating
add to favorites
×
Save as Personal and add changes to this tab that will be seen only by you. Learn more ›
×
You can save this tab as Personal to edit and correct it or add notes. All changes will be seen only by you. Learn more »
save as personal
new!
launch autoscroll
font size
0
reset
how to read this tab
guitar tuner
Autoscroll
slow
fast
+/-
esc
set tempo
stop
GUITARRA 1
E||---------------------------|---------------------------|
B||----------(0)-------(0)----|----------(0)-------(0)----|
G||-----------0---------0-----|-----------0---------0-----|
D||-----------2---------2-----|-----------2---------2-----|
A||---------------0-----------|---------------0-----------|
E||--0------------------------|--0------------------------|

 GUITARRA 1
-----------------------|------------------------|-----------------------|
------------------7----|-------7--------7-------|--6---------------6----|
----------6------------|------------------------|----------5------------|
-------------7---------|----------7--7----------|-------------6---------|
--6--------------------|--6---------------------|--5--------------------|
-----------------------|------------------------|-----------------------|

GUITARRA 1
------------------------|-----------------------|------------------|
-------3----------------|-----1----1------------|-------1-------1--|
------------------------|-----2----2------------|-------2-------2--|
--3---------2--0--------|-----------------------|------------------|
------------------3--2--|--0--------------------|--0---------0-----|
------------------------|-------------0----3----|------------------|

GUITARRA 1
------------------2----|-------2--------2----|-------------0-----------0|
--0---------------0----|-------0--------0----|----------0-----------0---|
----------2------------|----------0----------|-------0-----------0------|
-------------1---------|-------------0-------|--1s-2----------0---------|
--2--------------------|---------------------|--------------------------|
-----------------------|--2------------------|--------------------------|

GUITARRA 1
-----------0-----------0--|-----------0----------|---------------------|
--------1-----------1-----|--------1--------1----|-----1-------0-------|
-----0-----------2--------|-----2-----------2----|-----2-------2----2--|
--------------------------|-----------------2----|-----2-------1-------|
--3-----------2-----------|--0-------------------|----------2----------|
--------------------------|--------------3-------|--2------------------|


GUITARRA 2
E||--------|---<>12--------------|------------|
B||--------|------------<>12-----|------------|
G||--------|---------------------|--<>12------|
D||--------|---------------------|------------|
A||--------|---------------------|------------|
E||--------|---------------------|------------|

GUITARRA 2
--------------------------|---------------|------|
-------13--------12-------|-----------12--|--9---|
--------------------------|--10-----------|------|
--------------------------|---------------|------|
--------------------------|---------------|------|
--------------------------|---------------|------|

GUITARRA 2
-------------------|---------------7--|-----10-------8--10--8--|
-------------------|-----7--8--10-----|------------------------|
----------9-----8--|--9---------------|------------------------|
-------------------|------------------|------------------------|
-------------------|------------------|------------------------|
-------------------|------------------|------------------------|

GUITARRA 2
--7h--8p--7----------10s--12--10--8--|--7----------------------|
-------------10--12------------------|-------8-------7--8p--7--|
-------------------------------------|------------9------------|
-------------------------------------|-------------------------|
-------------------------------------|-------------------------|
-------------------------------------|-------------------------|

GUITARRA 2
---------------7h--8p--7-----7--|--10----8s--10--7--------10--|
-----7--8--10-------------8-----|-------------------10--------|
--9-----------------------------|-----------------------------|
--------------------------------|-----------------------------|
--------------------------------|-----------------------------|
--------------------------------|-----------------------------|

GUITARRA 2
-----8s----10--7------------|-------------------------------|
------------------10--------|---------------------------8s--|
------------------------11--|--11--11s--12--11--9-----------|
----------------------------|-------------------------------|
----------------------------|-------------------------------|
----------------------------|-------------------------------|


GUITARRA 2
-------------------------|--------------------|---------------|
--7-----7----------------|--------------------|---------------|
-----9-----9--8----------|--------------------|---------------|
-------------------9--7--|--------------------|---------------|
-------------------------|--10----------------|---------------|
-------------------------|--------------------|---------------|
Suggest correction
Give kudos to tab author, rate the tab!
1 2 3 4 5
comments
print report bad tab
guest
Wanna post a correction for this tab? Suggest correction