Oops, an error
Loading. Please wait.

Pequeña Serenata Diurna Bass

40 views 1 this week
no commentswrite comment
1 2 3 4 5
3 more votes to show rating
add to favorites
launch autoscroll
font size
0
reset
guitar tuner
×
Best way to learn
"Pequeña Serenata Diurna"
Autoscroll
slow
fast
+/-
esc
set tempo
stop
Nota: el bajo empieza al 1:34 de empezada la canción, o sea, toda la parte
en la que Silvio no canta. No te gastes en escuchar bajos en la parte cantada
de eso se encarga la guitarra en la canción.
Traté de separarlos por como van los tiempos, la segunda vez les va a salir bien.
Esta claramente separada en 'dos partes' toda la parte instrumental.
Que la disfrutes!

Parte 1

G|---------------|4--4--4-|-----|------------|-----------|-------------|
D|-12s2-22-2-2-2-|-2---2--|-0-0-|-2--2-0-----|----2-2----|-------------|
A|---------------|--------|-----|--------3-2-|-0-0---0-0-|---------3-3-|
E|---------------|--------|-----|------------|-----------|-3-3-2-0-----|

G|--------|---|---|---|---|-------4-|---|
D|--------|-2-|-0-|---|---|---2-4---|-2-|
A|-2-22-2-|---|---|-3-|-2-|-0-------|---|
E|--------|---|---|---|---|---------|---|

Enganche chiquito

G|--2---4--------|
D|---------------|
A|---------------|
E|---------------|

Parte 2

G|-----4-4-----4-4---|-9---9---|---2---|------------|-----------------|
D|-2-2-----2-2-----7-|---7---7-|-0---0-|-2--2-0-----|-----2-2-----2-2-|
A|-------------------|---------|-------|--------3-2-|-0-0-----0-0-----|
E|-------------------|---------|-------|------------|-----------------|

G|-------|-------|---|---|---|---|-------4-|--------|--------|--------|
D|-4---4-|-------|-2-|-0-|---|---|---2-4---|-0-00-0-|2-0-----|---2---1|
A|-------|-2-2-2-|---|---|-3-|-2-|-0-------|--------|----3-2-|-0---0--|
E|-------|-------|---|---|---|---|---------|--------|--------|--------|

G|---4-----|-----4-4----|-2--4-|---|
D|-2---2-4-|-2-2------2-|------|-2-|
A|---------|------------|------|---|
E|---------|------------|------|---|

Hasta la proxima!!
Suggest correction
Give kudos to tab author, rate the tab!
1 2 3 4 5
comments
print report bad tab
guest
You may want to rate the tab now too:
select rating
Wanna post a correction for this tab? Suggest correction