Oops, an error
Loading. Please wait.

Pequeña Serenata Diurna Tab

version 3
version 3

Whole song

121 views 1 this week
no commentswrite comment
1 2 3 4 5
3 more votes to show rating
add to favorites
launch autoscroll
font size
0
reset
how to read this tab
guitar tuner
Autoscroll
slow
fast
+/-
esc
set tempo
stop
Help us to improve Ultimate-Guitar.com Take our survey!
×
Este es el
Intro de pequeña serenata diurna
Canta Silvio rodriguez

Los asteriscos simbolizan
armónicos naturales: sobre el traste que se indica.
Se hacen rozando,sin oprimir,la cuerda con la yema de los dedos.


e--12*---------------8--7---------7-----------------------------
B-----12*--------------------10------9-----------------7-8--10--
G---------12*-------------------------------8h9--8--9-----------


e--7------10-8-10-8-7h8p7----------7---10s12--10-8--7------
B-------------------------------10--------------------8----
G----------------------------------------------------------


e--------------------7-8-7-----7?--10-8-10-8-7-----
B---7-8-7-----7-8-10-------10------------------10--
G-9--------9---------------------------------------


e----10-8-10-8-7---------------------------------------------------
B----------------10-----7-7-7?-7h8p7----8-7-5--7-5s4---------------
G-------------------------------------9--------------4s2-0---------


saludos desde la puerta de entrada al mundo maya
Suggest correction
Give kudos to tab author, rate the tab!
1 2 3 4 5
comments
print report bad tab
guest
You may want to rate the tab now too:
select rating
Wanna post a correction for this tab? Suggest correction