Oops, an error
Loading. Please wait.

Pioneros Tab

34 views 1 this week
no commentswrite comment
1 2 3 4 5
3 more votes to show rating
add to favorites
launch autoscroll
font size
0
reset
how to read this tab
guitar tuner
Autoscroll
slow
fast
+/-
esc
set tempo
stop
Help us to improve Ultimate-Guitar.com Take our survey!
×
(tab1)
e|--2---3---5--5-5-7--5-3-5---2-3--2h0-2------0---------------------|
B|--3---5---7--7-7-8--7-5-7---3-5--3---3--3-3----0--3h0-2----0h2-3--|
G|--2---4---6--6-6-7--6-4-6---2-4--2---2--2-2-----1-----2---2-------|
D|--0-------0------0------0-----0------0----------------2--2--------|
A|--------------------------------------------2---------0-----------|
E|------------------------------------------------------------------|

(tab2)
e|--2---3---5--5-5-7--5-3-5---2-3--2h0-2------0---------------|Se tocan
B|--3---5---7--7-7-8--7-5-7---3-5--3---3--3-3----3-2-3--------|juntas una
G|--2---4---6--6-6-7--6-4-6---2-4--2---2--2-2----------2------|vez de intro
D|--0-------0------0------0-----0------0-------------0---4-0--|la segunda
A|--------------------------------------------0---------------|vez cantada
E|------------------------------------------------------------|

  (Tab1)
a)El Domingo me fui a la Sanzala

  me puse las alas, me sentí mejor
  (Tab2)
  Porque oyendo un cantar de pioneros

  me sentí más lleno de patria y amor

(para empezar "b")
e|---------2-2
B|---------3-3
G|---------4-4 (etc)
D|--0------4-4
A|-----4-2----
E|------------

(Esta parte se rasguea)
    SIm        MI           LA7        LA*(5to traste)
b)Fue como regresar a un lugar
               FA#           LA7
   donde guardo raíces y luceros
e|--5--3--2
B|--7--5--3
G|--6--4--2
   (tab1)
   Fue como si mi niña cantara

   y más me abrasara en aquella canción
  (tab2)
  Fui papa de un pionero de guerra

   aqui en esta tierra

   cantandole al sol

    SIm        MI             LA7        LA*(5to traste)
b)Fue como regresar a un lugar
               FA#           LA7
   donde guardo raices y luceros
e|--5--3--2
B|--7--5--3
G|--6--4--2
   (tab1)
   Fue como si mi niña cantara

   y más me abrasara en aquella canción
  (tab2)
  Fui papa de un pionero de guerra

   aqui en esta tierra

   cantandole al sol

(Para terminar se repite la introducción y termina con un ritardando)
Suggest correction
Give kudos to tab author, rate the tab!
1 2 3 4 5
comments
print report bad tab
guest
You may want to rate the tab now too:
select rating
Wanna post a correction for this tab? Suggest correction