Oops, an error
Loading. Please wait.

Quien Tiene Viejo El Corazón Tab

145 views 3 this week
no commentswrite comment
1 2 3 4 5
2 more votes to show rating
add to favorites
launch autoscroll
font size
0
reset
how to read this tab
guitar tuner
×
Best way to learn
"Quien Tiene Viejo El Corazón"
Autoscroll
slow
fast
+/-
esc
set tempo
stop
# Aquí he incluido la introducción de Quien Tiene Viejo el Corazón
# El resto de la canción esta en la version anterior. Varios segmentos de
# aquí se repiten durante la cancion, excepto por los pasatonos
# que no son muy dificiles de sacar.
# No he incluido todos los efectos, pero con la transcripcion abajo debe
# ser suficiente.
# Nota: Las notas son relativas a tener Capo en el 2do traste.
#La cancion esta dos semitonos arriba.
# Cualquier sugerencia o correcion por favor escriban.

                         Quien Tiene Viejo El Corazon
                                Silvio Rodriguez
(Capo 2)

        ^  ^  ^    ^  ^
E||--0--5--4--5----4--5----|--4----5----7----8----|--5----0--------------|
B||------------------------|----------------------|------------1---------|
G||--0--5--4--5----4--5----|--4----5----7----9----|--2----2---------2----|
D||------------------------|----------------------|-------2--------------|
A||------------------------|-------0---------0----|------------3----0----|
E||------------------------|--0-------------------|----------------------|


5------------------------|-------------------------|---------------------|
---5---------------6--5--|--6--------------5----4--|--5--L------------4--|
------5------------------|-----7-----5-------------|-----5-------4-------|
---------7--(7)----7--5--|--7--------------5----4--|--5--L------------4--|
-------------5-----------|-----8-----7-------------|-------------2-------|
-------------------------|----------(0)------------|----------2--L-------|


--------------2---------|--2---------------------|-----------------0--5--|
--2-----4----------4----|--------5--3--1----0----|-----1-----------------|
--------------2---------|--2---------------------|----------2------0--5--|
--2-----4----------4----|--------5--3--2----1----|-----2-----------------|
-------------------2----|-----2------------------|--2--------------------|
-------(2)--------------|------------------------|-----------------------|


--4--5----4--5----4----|--5----7----10----8----|--7----5----0------------|
-----------------------|------------10---------|-------------------------|
--4--5----4--5----4----|--5----7----10----9----|--7----5----2-------(2)--|
-----------------------|-----------------------|------------2--------2---|
-----------------------|-------------0---------|-------0---------0-------|
------------------0----|-----------------------|-------------------------|


-------------1--0--1----|------------0---------|-------------2----/8----|
------------------------|--3----1---------4----|--5--0--0---------------|
--0--3-------2--0--2----|------------0---------|------------------/8----|
--------0----------3----|--3----2---------4----|--5--1------------------|
------------------------|-------0--------------|-----2------------------|
------------------------|----------------------|------------------------|

                                                      ^
-----7p-5s-4--------|--1----0-----------------|------------------------|
--------------------|------------3---1-----0--|--------------0---------|
--------------------|--2----1-----------------|---------5---------5----|
--------------------|------------3---2-----0--|---7--------------------|
--------------------|---------------(0)-------|--(0)-------------------|
-----------0--------|-------------------------|------------------------|

------------------------|------------------------|----------------------|
--------------0---------|--------------0---------|--------------0-------|
---------5---------5----|---------5---------5----|---------5---------5--|
---6--------------------|---5--------------------|---4------------------|
--(0)-------------------|--(0)-------------------|--(0)-----------------|
------------------------|------------------------|----------------------|

   ^                        ^                        ^
------------------------|------------------------|----------------------|
--------------0---------|--------------0---------|--------------0-------|
---------5---------5----|---------5---------5----|---------5---------5--|
---7--------------------|---6--------------------|---5------------------|
--(0)-------------------|--(0)-------------------|--(0)-----------------|
------------------------|------------------------|----------------------|

   ^                        ^                        ^
------------------------|------------------------|----------------------|
--------------0---------|--------------0---------|--------------0-------|
---------5---------5----|---------5---------5----|---------5---------5--|
---4--------------------|---3--------------------|---2------------------|
--(0)-------------------|--(0)-------------------|--(0)-----------------|
------------------------|------------------------|----------------------|

   ^
------------------------|--0----------------|
--------------0---------|--0----------------|
---------5---------5----|--1----------------|
---1--------------------|--2----------------|
--(0)-------------------|--2----------------|
------------------------|--0----------------|

Disfruten!
Suggest correction
Give kudos to tab author, rate the tab!
1 2 3 4 5
comments
print report bad tab
guest
You may want to rate the tab now too:
select rating
Wanna post a correction for this tab? Suggest correction