Oops, an error
Loading. Please wait.

Rio Tab

79 views 1 this week
no commentswrite comment
1 2 3 4 5
3 more votes to show rating
add to favorites
launch autoscroll
font size
0
reset
how to read this tab
guitar tuner
×
Best way to learn
"Rio"
Autoscroll
slow
fast
+/-
esc
set tempo
stop
     1)

     intr:
         A             E              D        A                               
     E-------------------------------2-------------------------------------
     B---2p0-----0--0--0-----------0-----5--3--2--------2-----2p0-----0------
     G--------2-----------1-----1--------------------2-----2-------2---------
     D-----------------------2--------0-----------2--------------------------
     A---0-------------------------------4--2--0--------------0--------------
     E-----------4--2--0----------------------------------------------4------
                                                                             

            E                          A                                       
     E------------------------------5--5-------------------------------------
     B---0--0-----------0--------3-------------------------------------------
     G---------1-----1--------2----------------------------------------------
     D------------2--------0-------------------------------------------------
     A-----------------------------------------------------------------------
     E---2--0--------------------------5-------------------------------------

     1)
         A                      E
     Hoy se que no hay nada imposible
      D               A
     Anoche supe la verdad
                         E
     Creí a mi alma inservible
                 D                   A
     Pero era cansancio vulgar, nada más

     1)   
     Tú eres un don de la brisa
     Un ser de la resurrección
     Un pájaro con una risa
     Capaz de arrastrar a la noche hasta el sol

     2)
     D    E    A
     Río, río, río
     D    E    A
     Río de verdad
     D      E   F#m
     Como un animal
           B     E          D    A
     Que ha sido puesto en libertad

     A(5 tr.)
     Río
            E/G#        G             F#
     Me dejo ir en mano alegre, voy previendo
              Bm          Bm/A           E/G#   C#7
     Porque mañana, a lo mejor, hay un entierro
              F#m       F#m/E           D
     Y una mordida de panera en lo más mío

     Río
     A
     Y no es un desafío
     C
     A la vida del sueño
     E                          E4  E  A
     Es que vivo camino al cementeeeeerio
Suggest correction
Give kudos to tab author, rate the tab!
1 2 3 4 5
comments
print report bad tab
guest
You may want to rate the tab now too:
select rating
Wanna post a correction for this tab? Suggest correction