Oops, an error
Loading. Please wait.

Sueño Con Serpientes Tab

version 1
version 1

Whole song

Interactive

439 views 3 this week
no commentswrite comment
1 2 3 4 5
3 more votes to show rating
add to favorites
launch autoscroll
font size
0
reset
how to read this tab
guitar tuner
×
Best way to learn
"Sueño Con Serpientes"
Autoscroll
slow
fast
+/-
esc
set tempo
stop
Para mi que esta cancion va asi les va a costar un poco debido
a que en la las tablaturas no se puede poner el tiempo y es dificil
transcribirlas para que se entienda,pero bueno lo puse lo mas
entendible que pude.

Este se la dedico a palvel que por el que la pude sacar
ademas el es un mounstro a la guitarra.

E:------------------------------|------------------------------3-----
B:-----------3-3--2-2--0h1p0----|--------------------0--1---3--------
G:-------0-------------------0--|---------0---0--2---------------0---
D:-------------0----------------|---0-0-----0------0------0----------
A:------------------------------|------------------------------------
E:-------3----------3-----------|-------3-----3------3------3--------

                            FA         DO         SOL
E:------3-------3-----3-----1----------0-----------------------------
B:--------------3-----3--------1-3--------1---1---3----0---0--(oh1h3)
G:------------4-----4-----------------------0------------0-----------
D:----------5-----5---------3------------------------0---------------
A:------5------------------------------3-----------------------------
E:------------------------------------------------3------------------


E:----------------------------------------
B:-----0h1h3--0h1p0-------(0)-------------
G:------------------0--(0)---(0)----------
D:----------------------------------------
A:----------------------------------------
E:----------------------------------------

      REm             FA       DO          SOL
E:----1-------1-------1--------0---------------------------------
B:--------3--------------1-3------1---1----3---0---0--(0h1h3)---
G:------2-------2-------------------0------------0---------------
D:----0-----0---------3----------------------0-------------------
A:-----------------------------3---------------------------------
E:-----------------------------------------3---------------------


E:----------------------------------------
B:-----0h1h3--0h1p0-------(0)-------------
G:------------------0--(0)---(0)----------
D:----------------------------------------
A:----------------------------------------
E:----------------------------------------

                    FA        DO         SOL
E:------3-3-3-------1---------0------------------------------
B:------3-3-3----------1-3------1---1----3---0---0--(oh1h3)--
G:--------------------------------0------------0-------------
D:----0-------------3----------------------0-----------------
A:----------------------------3------------------------------
E:---------------------------------------3-------------------


E:----------------------------------------
B:-----0h1h3--0h1p0-------(0)-------------
G:------------------0--(0)---(0)----------
D:----------------------------------------
A:----------------------------------------
E:----------------------------------------


bueno en esta parte pueden hacer lo mismo que en
el comienzo solo trae unos detalles que me dio boluda
hacerlos pero haci ago yo y no se oye mal.


SOL
A)Sueño con serpientes
SOL
con serpientes de mar
             REm
con cierto mar Ay!
(V-0)  FA        DO  SOL
de serpientes, sueño yo.

A)Largas, transparentes
y en sus barrigas llevan
lo que puedan
arrebatarle al amor

  REm·FA·DO·SOL
B)¡Oh!
     REm          FA   DO  SOL
La mato y aparece otra mayor
 REm·FA·DO·SOL
¡Oh!
     REm          FA
con mucho mas infierno
    DO     SOL
en digestión

A)No quepo en su boca
me trata de tragar
pero se atora
con un trébol de mi sien
creo que esta loca
le doy de masticar una paloma
y la enveneno de mi bien.

B)¡Oh! La mato...

A)Esta al fin me engulle
y mientras por su estomago paseo
voy pensando en que vendrá
pero se destruye
cuando llego a su estomago
y planteo con un verso una verdad

B)¡Oh!
La mato y aparece una mayor
¡Oh!
con mucho mas infierno
en digestión
LA#  FA    MIm           RE
La mato y aparece una mayor
REm   FA·DO·SOL·REm·FA·DO·SOL
¡Oooooooh!


 _ _ _ _ _ _ _ _ _ _ _ _ _
| Proximamente:            |
|                          |
| Cancion de navidad (tab) |
|_ _ _ _ _ _ _ _ __ _ _ _ _|

Escribanme a mi correo si quieren otras canciones de silvio
Suggest correction
Give kudos to tab author, rate the tab!
1 2 3 4 5
comments
print report bad tab
guest
You may want to rate the tab now too:
select rating
Wanna post a correction for this tab? Suggest correction