Oops, an error
Loading. Please wait.

Sueño Valseado Tab

40 views 1 this week
no commentswrite comment
1 2 3 4 5
3 more votes to show rating
add to favorites
×
Save as Personal and add changes to this tab that will be seen only by you. Learn more ›
×
You can save this tab as Personal to edit and correct it or add notes. All changes will be seen only by you. Learn more »
save as personal
new!
launch autoscroll
font size
0
reset
how to read this tab
guitar tuner
Autoscroll
slow
fast
+/-
esc
set tempo
stop
Bueno, aca está el intro de esta canción, maqs el riff1 (que viene despues
del primer verso) y el final de la cancion


|---------------------5---0-------0-4-5----4-2-----2---------------|
|-----------------4-----4-------2-------2------2-3-------3-----0---|
|---------2---5-----5---------2---------2------------3-4---0-1-----|
|-0---4-----4---4-----------2-----------2--------------------------|
|---0---5-----------------0------------------2---------------------|
|-------------------------------------2------------------0---------|


|-------------------5-----5---5---5-2-0---------8---------------------0-4-|
|-------------0-3-2-3-2-0---------------3-2-0-----10-7--------------2-----|
|-----1-----1-------------2-0--------------------------8----------2-------|
|-1-2-----2-------------------4-2-0----------------------10-7---2---------|
|-------4-------------------------------------6---------------0-----------|
|-------------------------------------------------------------------------|


|-5-------0---0------0-------0----------------------------------|
|------^3---------^3-------0----------2-0-----0---0---0---0-----|
|----2-^2-------2-^2-----2-----2--1-------2-----2---2---2-------|
|------^0---------^0--------------------------------------------|
|------^2---4-----^0------------------0-----0-------------0-----|
|-2--------------------0--------------------------------0-------|


 riff1
|--------5-9---7-----4-7-5------0-5-4-5-4-2-0----------------------|
|------5-----------5----------2---------------2------2-0-----0-3---|
|----6-----------7----------2---------------------2--------1-------|
|-----------------------------------------------2--------2---------|
|-0----------------------0--------------------0--------------------|
|------------0---4------------------0------------------0-----------|


|---------0-------------------|
|-2-----2---3--2--0--2-0------|
|-----2------------------2----|
|---2-------4--2--0-----------|
|-0------------------0--------|
|-----------------------------|

Final

|---5-2-0---------8-5---------------0-4-5-4-2-----2-------------------------0---5--|
|---------3-2-0-------7-----------2-----------2-3-------3-----0---------2-----2-5--|
|-----------------------8-5-----2-------------------3-4---0-1-------2-----2-----6--|
|-0---------------------------2---------------------------------1-2---2---------7--|
|---------------6-----------0---------------2-----------------------------------7--|
|---------------------------------------2---------------0-----------------------5--|

eso es todo, las notas y la letra están en las otras partituras
Suggest correction
Give kudos to tab author, rate the tab!
1 2 3 4 5
comments
print report bad tab
guest
Wanna post a correction for this tab? Suggest correction