Oops, an error
Loading. Please wait.

Te Conozco Tab

224 views 3 this week
no commentswrite comment
1 2 3 4 5
3 more votes to show rating
add to favorites
launch autoscroll
font size
0
reset
how to read this tab
guitar tuner
×
Best way to learn
"Te Conozco"
Autoscroll
slow
fast
+/-
esc
set tempo
stop
Una humilde pero efectiva adaptación a 6 cuerdas, no duden en 
escribir para correcciones o comentarios.
El bajo inicia a los 2 minutos 13 segundos aprox/e.      

  Em7           G6             Am7 Bm7  C7     D
C|-------------|--------------|---------------------
G|-------------|--------------|-----4-----5---------
D|---5---------|--------2-----|---------------------
A|-----7-5-----|----------2---|---2---2-3---3-X-5---
E|---------7-5-|-3---0------3-|-5-------------------
B|-------------|--------------|---------------------


  G6  Em7               G6          Em7     Am7 D  Bb(dis)
C|--------------------|--------------------|----------
G|------4-4-----------|--------------------|----------
D|----------7-5---7-X-|-5-5----------------|-------8--
A|--------------7-----|-----5---0-2--------|----5-----
E|-3--0---------------|-------3-----0--0-3-|-5--------
B|--------------------|--------------------|----------


  Bm7       Em7        Am7  Bm7 C7          D
C|--------------------|----------------------------
G|-------4------------|-----------5----------------
D|-9-------0-2--0-2---|-------------5--------------
A|---0-2--------------|---X-2-X-3-----3-X-X-5\-----
E|------------------0-|-5--------------------------
B|--------------------|----------------------------


  G6            Em7
C|-------------|--------------------|-----
G|-------------|----7-9-------------|-----
D|-------------|-------7-9----------|-----
A|----5------5-|-7--------7---------|-----
E|-3-----X-7---|------------X-0-X-3-|-----
B|-------------|--------------------|-----


   Am7                           D
C|-----------------------------|---------------
G|-----------------------------|---7-----7-----
D|-----7-7-5---7-7--5----------|---------------
A|---7-------7--------7----X-3-|-5---5-5-------
E|-5--------------------5------|------------X--
B|-----------------------------|---------------


  G6                               Em7
C|--------------------------------|-----------------------
G|---------------------------4----|-----------------------
D|-------------5-5--5-------------|-----------------------
A|-------5-7-5--------5---X-5-5-X-|-7-7-5-7-------(7)-----
E|-3-5-7----------------3---------|---------5-7-0-(7)-X-3-
B|--------------------------------|-----------------------


   Am7                            D
C|-------------------------------|------------------
G|-------------------------------|-----7---7--------
D|-----5---7---5-5---7-----------|---7--------------
A|---7---7---7-----7---7---X-2-3-|-5-----5----------
E|-5---------------------7-------|------------------
B|-------------------------------|------------------


C|--------|---2---------|------------|------9--|-----------
G|----4-3-|-2-----------|------------|-------8-|-9---5-5---
D|--------|-------------|--------5---|-7-------|-----------
A|--------|-------5-----|------7---7-|---------|---3-----2-
E|-3------|-------------|-3--0-------|---------|-----------
B|--------|---------3-X-|------------|---------|-----------


C|-------------|-------------------|-----------------
G|-------------|-------------------|-----------------
D|-------------|-----5-5-5---2-----|-----------------
A|-0-2-3-5-5---|---5-----------5-2-|---5-------------
E|-----------0-|-3---------0-------|-3----0-X-3------
B|-------------|-------------------|-----------------


C|---------------------|-----------------------
G|---------5-------7---|---------4-------------
D|-----------5-------4-|-5---------7-5---7-7---
A|---2-X-3-----3-5-----|---------------7-------
E|-5-------------------|---3-2-0---------------
B|---------------------|-----------------------


C|----------------------|---------9---9--10---------
G|---------------4------|-------7---7---------------
D|-5-5------------------|---0-----------------------
A|-----5-----X-2--------|---------------------------
E|-------X-3-------0--3-|-5-------------------------
B|----------------------|---------------------------


C|-11\----------|----------------------------------
G|--------------|-------4-2---4-----5--------------
D|--------------|-----------4---------5------------
A|--------------|---X-2---------X-3-----X-5/-------
E|------0---3-X-|-5--------------------------------
B|--------------|----------------------------------


C|-------------------|------------------------------
G|-------------------|---4-4------------------------
D|---------5-5-5-----|-------7-5-X-2-2--------------
A|---5-7-5-------5---|-----------------5-2----------
E|-3---------------3-|-0-------------------3-0------
B|-------------------|------------------------------


C|-----------------------------|-----------------------
G|-----------9-X-8-7-5---------|---7-7-7-7---7-7-5-----
D|----10-9-7-----------7\5-----|-------------------7---
A|-0-----------------------7---|-5---------5---------X-
E|---------------------------5-|-----------------------
B|-----------------------------|-----------------------


C|-------------------7-7--------------
G|-----------------7-----9-7----------
D|-----------5-7/9-----------9-7-5\---
A|-------5-7--------------------------
E|-3-5/7------------------------------
B|------------------------------------


C|--------------------------------
G|-----4---2----------------------
D|---X---X---X--5-5-2-------------
A|--------------------5-2---------
E|-0----------------------0-X-3---
B|--------------------------------


C|------------------------------------
G|------------------------------------
D|-----5---7---5-5--------------------
A|---7---7---7-----7-----X-2-X-3------
E|-5-----------------7----------------
B|------------------------------------


C|-------------------------------------------
G|---------7-7-5-----7---------7-7-7-5-------
D|-------X-------7-5---------X---------7-----
A|-5-5-5---------------5-5-5-------------5---
E|-------------------------------------------
B|-------------------------------------------


C|---------------------------7---------
G|-----------------7-7-7-9-7---7-------
D|-----------5-7/9---------------5\----
A|-------5-5---------------------------
E|-3-5\7-------------------------------
B|-------------------------------------


C|------7-6----------------------
G|----------9-7-9-9-7------------
D|--X/9---------------9----------
A|----------------------7\-------
E|-0-----------------------X-3---
B|-------------------------------


C|-------12---12-11-9----9-9-7-------------
G|----/9----9---------12-------9-----------
D|-------------------------------7\--------
A|-5--------------------------------0-3----
E|-----------------------------------------
B|-----------------------------------------


C|----------|-----------||
G|----------|-----------||
D|----------|-----------||
A|-5-5-5-5--|-----------||
E|----------|-3-----3---||
B|----------|-----------||
Suggest correction
Give kudos to tab author, rate the tab!
1 2 3 4 5
comments
print report bad tab
guest
You may want to rate the tab now too:
select rating
Wanna post a correction for this tab? Suggest correction