Oops, an error
Loading. Please wait.

Tu Sonrisa Ha Cambiado Tab

37 views 1 this week
no commentswrite comment
1 2 3 4 5
3 more votes to show rating
add to favorites
launch autoscroll
font size
0
reset
how to read this tab
guitar tuner
×
Best way to learn
"Tu Sonrisa Ha Cambiado"
Autoscroll
slow
fast
+/-
esc
set tempo
stop
Tomen en cuenta que la guitarra de Silvio
esta afinada ½ tono abajo.

Intro:
E  +------6-5-----------------8-----7------------------4----+
B  |----5-----8-------7-----7-----7---10-------9-----3------|
G  |--6-------------5-----8-----8------------7-----4-------7|
D  |5-------------7-----7------------------9-----3-------6--|
A  |------------5------------------------7------------------|
E  +--------------------------------------------------------+


E  +8-7-------------6-5----------------------------------2--+
B  |6---5---------------3-----------9-8----------0---2---3--|
G  |----------5---6------------------------------1---2------|
D  |--------7---5-------5---------9------------2-------0----|
A  |------7---------------1-2-5-8--------2-3-5-----0--------|
E  +----5--------------------------------------------------3+


E  +----------------0---3-------------3-----5---3-----------+
B  |0 --------3-----------3---------5-----7-----3-3-------3-|
G  |0----- -2-----0---------4---4---5-----7-----4---4---4---|
D  |----2-0-------------------5-----5-----7-----------5-----|
A  |--3---------3-----------------3-----5-------------------|
E  +------------------3-----------------------3-------------+


E  +--------3-2---------------------------------------------+
B  |------5-----------3-------------------------------------|
G  |----5-----------2---------------------------------------|
D  |--5-----------4-----------------------------------------|
A  |3-----------5-------------------------------------------|
E  +--------------------------------------------------------+

Melodía de la letra: las mayúsculas indican donde cae la nota.

El pOlvo y el tiempo...                       ...se han Ido
E  +------------3---------7-------------3-------------3-----+
B  | -------------3-7-------7-------3-5---5-3-------3-------|
G  |4-------4---------7-----------5-----------4---4-------2-|
D  |----5-----5---------9-------5---------------5-------0---|
A  |--5---5-------------------3-----------------------------|
E  +3---------------7-----------------------3---------------+

                                    ...propias de unA mujer
E  +--3-2-------2-------7-5-------5-------3-2---------------+
B  |3-----3---3-------5-----5---5-------3-----2---2--------0|
G  |--------2-------5---------5-------2---------3--------0--|
D  |--------------------------------0------------------0----|
A  |--------------0-----------------------------------------|
E  +------------------------------------------------3-------+

                Por Eso  ...ha cambiAdo ...en Este  inviErno
E  +------2-------0-----------------------------------0-----+
B  |----3-------1---------3---3-----------3---------1-------|
G  |--2-------0---------4-------4-------4---4-----0-------5-|
D  |0-----------------5-----------5---4---------2-------4---|
A  |--------3------- -------5-------2---------3-------------|
E  +----------------3---------------------------------------+

 que ya no pasarÁ          sin lUz... los inviErnos
E  +--5-------8-----------2-3-5-6-------6-----------3-2-----+
B  |4-------7---------3-5-------------5-----5-----3-------3-|
G  |------8---------5---------------6-----6-----2-------2---|
D  |----7---------5---------------5-----------0-------------|
A  |------------3-------------------------------------------|
E  +--------------------------------------------------------+

     tenAz..los inviErnos      ...ferOz   ...los inviErnos
E  +2-8-------8----------------------------4-----8-7--------+
B  |--------7-----7-------10-9-----9-----3-------6---5-----5|
G  |------8-----8-------9--------9-----4-------7---------5--|
D  |----7-------------9--------9-----3-------6---------6----|
A  |----------------7---------------------------------------|
E  +-------------------------------------------------5------+

        ...éstAs ..Ad (esto sería el final de la palabra ciudad)
E  +------4-5-6-6------------------------0------------------+
B  |6-7-8-------5----------------0-----0-----------------0--|
G  |------------6--------0-----0-----0-----------0-----0----|
D  |------------5------3-----3-----3-----------0-----0-----0|
A  |-----------------5-----5-----------------2-----2--------|
E  +---------------6-----------------------3----------------+

            a aquElla señora  ...biEn el café ...al mAnso
E  +----3--------------------------------------------------0+
B  |--0---0---0--10----10-10----10-10----10-10----10-----3--|
G  |0-------0--------7--------7--------7--------7------1----|
D  |---------------7--------7--------7--------7------2------|
A  |-------------9--------9--------8--------8---------------|
E  +--------------------------------------------------------+

 que despiErta   ...y al tOnto       del rEy
E  +0-------------------5-----------------------------------+
B  |----3-------------5-----10---------10---3---3---3-------|
G  |--1---------5---5------------7--------------------------|
D  |----------7---5------------7---7------0---0---0---0-----|
A  |--------7-------------9----------9---- -----------------|
E  +0-----5-------5-----------------------------------------+


    G                     Bm
No sabes cuánto de subversivo
                C                      G
vive en una sonrisa que no quiere comprar,
    D                          Am
y cuánto de muerte hacia el pasado
                        D
que se incrusta en los dedos
                    G  D
cual restos de humedad.

 C     G      D    C         Bm
La historia choca contra tu saya
      Bm7      E         E7         Am
y se hace remolinos que huyen del amor

El final es sobre estos arreglos. Búsquenle la vuelta.
Sobre la letra yo ?solo indique los bajos?.
E  +--------------0-0-0 ---2-2-2-----------------2-------0-0+
B  |2---3---0 --1 1-1-1----3-3-3----------0--2---3---0---1-1|
G  |2---2---0---0-0-0-0- --4-4-4--4-2-1---1--2-------0---0 0|
D  |--0-----------2-2-2--4-4-4-4- 4-2 2-2------0---------2-2|
A  |0---------3---3-3-3----2-2-2------------0----------3-3-3|
E  +------3----------------------------------------3--------+


E  +--------3-3-3----3-3-2--------------5 7--0-0-0-0--------+
B  |--------3-3-3 ---3-3-3--------------5-8--1-1-1-1--------|
G  |--------4-4-4 ---5-5-5--------------5-7- 0-0-0-0---Etc--|
D  |--------5-5-5----4-4-4- 3 2 0------------2-2-2-2--------|
A  |3-2-0---5-5-5- 5-5-5-5--------3-2-0----------3-3--------|
E  +------3-3-3-3----3-3-3----------------------------------+

 A    D     G        C           F# (Bm)
co---mo se dice que huyen los demonios
 E     A           D      G      C
de las estancias crueles para el odio.
    G  D               F A      C  D
Bendiiiiita         está   tu riiisa.
  G  D  G
Amén.

El polvo y el tiempo acumulados
sobre tu esperanza, se olvidaron de ser.
Se han ido fugando de tus ojos,
dándole sitio a luces propias de una mujer.
Por eso tu sonrisa ha cambiado
algo en este invierno, que ya no pasará
sin luz
como todos los inviernos,
tenaz
como todos los inviernos,
feroz
como todos lo inviernos.
éstas desafiando a la ciudad,
a aquella señora que hace bien el café,
al manso marido que despierta a las seis
y al tonto reloj del Rey.

No sabes cuánto de subversivo
vive en una sonrisa que no quiere comprar,
y cuánto de muerte hacia el pasado
que se incrusta en los dedos
cual restos de humedad.

La historia choca contra tu saya
y se hace remolinos que huyen del amor
como se dice que huyen los demonios
de las estancias crueles para el odio.
Bendita está tu risa,
Amén.
Suggest correction
Give kudos to tab author, rate the tab!
1 2 3 4 5
comments
print report bad tab
guest
You may want to rate the tab now too:
select rating
Wanna post a correction for this tab? Suggest correction