Oops, an error
Loading. Please wait.

Una Canción De Amor Esta Noche Tab

109 views 3 this week
no commentswrite comment
1 2 3 4 5
3 more votes to show rating
add to favorites
launch autoscroll
font size
0
reset
how to read this tab
guitar tuner
×
Best way to learn
"Una Canción De Amor Esta Noche"
Autoscroll
slow
fast
+/-
esc
set tempo
stop
Hice esta tablatura porque nunca la encontre en internet y saque
la cancion por mi cuenta, solo escuchandola.
Por cosas de espacio, la letra no calza siempre con las notas, asi
que les aconsejo que escuchen la cancion antes de tocarla.
Espero que les sirva.

Intro:

e-|-----------5--------------0--0------------------0----0---
B-|-------5h6-6-----------6--0--1---0h1----------3---1--1---
G-|-----5-----5---------5----2--2-------0h2----2--------2---
D-|-0---------0-------7------2--2-----------0-----------0---
A-|-----------------5--------0--0---------------------------
E-|---------------------------------------------------------


e-|---------1-0---3----3--------3-1-0--
B-|-------1-----1----1--------0--------
G-|-----2-------------------0----------
D-|---0-------------------0------------
A-|---------------3----2---------------
E-|-----------------------------3------


e-|-----------5--5-5-----------0--0-0--------------------0----0--
B-|-------6p5-6--6-6--------6--0--1-1-3p1-0h1----------3---1--1--
G-|-----5-----5--5-5------5----2--2-2---------0h2----2--------2--
D-|-0---------0--0-0----7------2--2-2-------------0-----------0--
A-|-------------------5--------0--0-0----------------------------
E-|-------------------------------------------------------------

e-|-0-0--------1-0---3----3--------3-1-0--
B-|-1-1------1-----1----1--------0--------
G-|-2-2----2-------------------0----------
D-|-0-0--0-------------------0------------
A-|--------------3---3----2---------------
E-|--------------------------------3------


e-|-----------5--5-5-----------0--0--0-0----------------0-0--0--
B-|-------6p5-6--6-6--------6--0--1--1-1-0h1----------3------1--
G-|-----5-----5--5-5------5----2--2--2-2-----0h2----2--------2--
D-|-0---------0--0-0----7------2--2--2-2---------0-----------0--
A-|-------------------5--------0--0--0-0------------------------
E-|-------------------------------------------------------------

e-|-0-0--------1-0---3----3--------3-1-0--
B-|-1-1------1-----1----1--------0--------
G-|-2-2----2-------------------0----------
D-|-0-0--0-------------------0------------
A-|--------------3---3----2---------------
E-|--------------------------------3------

e-|-----------5--5-5-----------0--0--0-0--0-0-0-0--------0----0--
B-|-------5h6-6--6-6--------6--0--1--1-1--0-1-1-1------3---1--1--
G-|-----5-----5--5-5------5----2--2--2-2--2-2-0-2----2--------2--
D-|-0---------0--0-0----7------2--2--2-2--2-2-2-2-0-----------0--
A-|-------------------5--------0--0--0-0--0-0-0-0----------------
E-|--------------------------------------------------------------

e-|-0-0--------1-0---3----3--------3-1-0--
B-|-1-1------1-----1----1--------0--------
G-|-2-2----2-------------------0----------
D-|-0-0--0-------------------0------------
A-|--------------3---3----2---------------
E-|--------------------------------3------


                 Una cancion de amor esta noche
e-|-------------5---5--5--------------0---0---0--0--
B-|--------5h6--6---6--6-----------6--0---1---1--1--
G-|-----5-------5---5--5--------5-----2---2---2--2--
D-|-0-----------0---0--0-----7--------2---2---2--2--
A-|-----------------------5-----------0---0---0--0--
E-|-------------------------------------------------


                     es lo que yo te quiero entregar
e-|-------------0----0----0--0-----------1--0---0---0-0-----------
B-|-----------3---1--1----1--1---------1----0---1---1-1-----------
G-|---------2--------2----2--2------2-------2---2---2-2-----------
D-|------0-----------0----0--0---0----------2---2---2-2-----------
A-|-0--2------------------0--0--------------2---2---2-2-----------
E-|------------------------------------------------------0h3-1h3--


              Para que solo tu la retoces
e-|-------------5---5--5------------0---0---0-0--
B-|--------5h6--6---6--6---------6--0---1---1-1--
G-|-----5-------5---5--5-------5----2---2---2-2--
D-|-0-----------0---0--0-----7------2---2---2-2--
A-|-----------------------5---------0---0---0-0--
E-|----------------------------------------------


                       para  romperla         luego  de   amar
e-|----------------0----0---------1-------2-------------------
B-|-0h1----------3---1--1-------1-------3---------3-------0---
G-|-----0h2----2--------2-----2-------2---------2-------1-----
D-|---------0-----------0---------------------3-------2-------
A-|-----------------------------------------2-----------------
E-|-------------------------1-------2---------------0---------


e-|-----------------------------------
B-|-----------0----------1----------1-
G-|--------1----------2----------2----
D-|-----2----------2----------2-------
A-|--2----------0---------------------
E-|------------------------3----------


                 Una Cancion de amor esta noche
e-|-------------5---5--5--------------0---0---0--0--
B-|--------5h6--6---6--6-----------6--0---1---1--1--
G-|-----5-------5---5--5--------5-----2---2---2--2--
D-|-0-----------0---0--0-----7--------2---2---2--2--
A-|-----------------------5-----------0---0---0--0--
E-|-------------------------------------------------


                         Inesperada  para  mi  voz
e-|---------------0----0---0--0-----------1--0---0---0-0-----------
B-|-------------3---1--1---1--1---------1----0---1---1-1-----------
G-|-----------2--------2---2--2------2-------2---2---2-2-----------
D-|---------0----------0---0--0---0----------2---2---2-2-----------
A-|---0-2-3----------------0--0--------------2---2---2-2-----------
E-|-3-----------------------------------------------------0h3-1h3--


                 Una cancion de amor y de goce
e-|-------------5---5--5------------0---0---0-0--
B-|--------5h6--6---6--6---------6--0---1---1-1--
G-|-----5-------5---5--5-------5----2---2---2-2--
D-|-0-----------0---0--0-----7------2---2---2-2--
A-|-----------------------5---------0---0---0-0--
E-|----------------------------------------------


                           Una  cancion      de  los  dos
e-|----------------0----0---------1-------2-------------------
B-|-0h1----------3---1--1-------1-------3---------3-------0---
G-|-----0h2----2--------2-----2-------2---------2-------1-----
D-|---------0-----------0---------------------3-------2-------
A-|-----------------------------------------2-----------------
E-|-------------------------1-------2---------------0---------


e-|-----------------------------------
B-|-----------0----------1----------1-
G-|--------1----------2----------2----
D-|-----2----------2----------2-------
A-|--2----------0---------------------
E-|------------------------3----------


       Una   canción      la que nos  acerque
e-|--------------5---5--5--------------0---0---0-0--
B-|--------5h6---6---6--6-----------6--0---1---1-1--
G-|-----5--------5---5--5--------5-----2---2---2-2--
D-|-0------------0---0--0-----7--------2---2---2-2--
A-|------------------------5-----------0---0---0-0--
E-|--------------------------------------------------


              una cancion        No nos deja  so- los
e-|------------------0----0--0-0-----------1--0----3----3-------3-1-0--
B-|-0h1-----------3----1--1--1-1--------1--------1----1-------0--------
G-|-----0h2----2----------2--2-2-----2----------------------0----------
D-|---------0-------------0--0-0--0-----------------------0------------
A-|-------------------------------------------3----3----2--------------
E-|-------------------------------------------------------------3------


       Una cancion       lejos de la  muerte
e-|--------------5---5--5--------------0---0---0-0--
B-|--------5h6---6---6--6-----------6--0---1---1-1--
G-|-----5--------5---5--5--------5-----2---2---2-2--
D-|-0------------0---0--0-----7--------2---2---2-2--
A-|------------------------5-----------0---0---0-0--
E-|--------------------------------------------------


                                 Casi nada puede  to-  do tututututuru
e-|------------------0----0--0-0-----------1--0----3----3-------3-1-0--
B-|-0h1-----------3----1--1--1-1--------1--------1----1-------0--------
G-|-----0h2----2----------2--2-2-----2----------------------0----------
D-|---------0-------------0--0-0--0-----------------------0------------
A-|-------------------------------------------3----3----2--------------
E-|-------------------------------------------------------------3------


    Tu                  turututu tu
e-|-----------5--5-5-----------0--0--0-0----------------0----0--
B-|-------6p5-6--6-6--------6--0--1--1-1-0h1----------3---1--1--
G-|-----5-----5--5-5------5----2--2--2-2-----0h2----2--------2--
D-|-0---------0--0-0----7------2--2--2-2---------0-----------0--
A-|-------------------5--------0--0--0-0------------------------
E-|-------------------------------------------------------------


e-|-0-0--------1-0---3----3--------3--1-0--
B-|-1-1------1-----1----1--------0---------
G-|-2-2----2-------------------0-----------
D-|-0-0--0-------------------0-------------
A-|--------------3---3----2----------------
E-|--------------------------------3-------


                   Una cancion de amor no es difícil
e-|-------------5---5--5----------------0----0----0---0--
B-|--------5h6--6---6--6-------------6--0----1----1---1--
G-|-----5-------5---5--5----------5-----2----2----2---2--
D-|-0-----------0---0--0-------7--------2----2----2---2--
A-|-------------------------5-----------0----0----0---0--
E-|------------------------------------------------------


                       cuando se viene de  maldecir
e-|---------------0----0---0--0-----------1--0---0---0-0-----------
B-|-------------3---1--1---1--1---------1----0---1---1-1-----------
G-|-----------2--------2---2--2------2-------2---2---2-2-----------
D-|---------0----------0---0--0---0----------2---2---2-2-----------
A-|---0-2-3----------------0--0--------------2---2---2-2-----------
E-|-3-----------------------------------------------------0h3-1h3--


                    Los dos idiomas viven felices
e-|-------------5---5--5----------------0----0----0---0--
B-|--------5h6--6---6--6-------------6--0----1----1---1--
G-|-----5-------5---5--5----------5-----2----2----2---2--
D-|-0-----------0---0--0-------7--------2----2----2---2--
A-|-------------------------5-----------0----0----0---0--
E-|------------------------------------------------------

                         y hacen  familia    para vivir
e-|----------------0----0---------1-------2-------------------
B-|-0h1----------3---1--1-------1-------3---------3-------0---
G-|-----0h2----2--------2-----2-------2---------2-------1-----
D-|---------0-----------0---------------------3-------2-------
A-|-----------------------------------------2-----------------
E-|-------------------------1-------2---------------0---------


e-|-----------------------------------
B-|-----------0----------1----------1-
G-|--------1----------2----------2----
D-|-----2----------2----------2-------
A-|--2----------0---------------------
E-|------------------------3----------


                   Una canción de amor que se mueve
e-|-------------5---5--5----------------0----0----0---0--
B-|--------5h6--6---6--6-------------6--0----1----1---1--
G-|-----5-------5---5--5----------5-----2----2----2---2--
D-|-0-----------0---0--0-------7--------2----2----2---2--
A-|-------------------------5-----------0----0----0---0--
E-|------------------------------------------------------


                         fuera del odio, el miedo, el quizas
e-|---------------0-0--0---0---0-----------1--0---0---0-0-----------
B-|-0h1---------3------1---1---1---------1----0---1---1-1-----------
G-|----0h2----2--------2---2---2------2-------2---2---2-2-----------
D-|---------0----------0---0---0---0----------2---2---2-2-----------
A-|------------------------0---0--------------2---2---2-2-----------
E-|--------------------------------------------------------0h3-1h3--


                   Sera de amor por si tu me quieres
e-|-------------5---5--5----------------0----0----0---0--
B-|--------5h6--6---6--6-------------6--0----1----1---1--
G-|-----5-------5---5--5----------5-----2----2----2---2--
D-|-0-----------0---0--0-------7--------2----2----2---2--
A-|-------------------------5-----------0----0----0---0--
E-|------------------------------------------------------


                       sera de  amor por si tu te  vas
e-|-0--0--0--0--------0----0---------1-------2-------------------
B-|-0--1--1--1------3---1--1-------1-------3---------3-------0---
G-|-2--2--0--2----2--------2-----2-------2---------2-------1-----
D-|-2--2--2--2--0----------0---------------------3-------2-------
A-|-0--0--0--0---------------------------------2-----------------
E-|----------------------------1-------2---------------0---------


       Una   canción      la que nos  acerque
e-|--------------5---5--5--------------0---0---0-0--
B-|--------5h6---6---6--6-----------6--0---1---1-1--
G-|-----5--------5---5--5--------5-----2---2---2-2--
D-|-0------------0---0--0-----7--------2---2---2-2--
A-|------------------------5-----------0---0---0-0--
E-|--------------------------------------------------


              una cancion        No nos deja  so- los
e-|------------------0----0--0-0-----------1--0----3----3-------3-1-0--
B-|-0h1-----------3----1--1--1-1--------1--------1----1-------0--------
G-|-----0h2----2----------2--2-2-----2----------------------0----------
D-|---------0-------------0--0-0--0-----------------------0------------
A-|-------------------------------------------3----3----2--------------
E-|-------------------------------------------------------------3------


       Una cancion       lejos de la  muerte
e-|--------------5---5--5--------------0---0---0-0--
B-|--------5h6---6---6--6-----------6--0---1---1-1--
G-|-----5--------5---5--5--------5-----2---2---2-2--
D-|-0------------0---0--0-----7--------2---2---2-2--
A-|------------------------5-----------0---0---0-0--
E-|--------------------------------------------------


                                 Casi nada puede  to-  do tututututuru
e-|------------------0----0--0-0-----------1--0----3----3-------3-1-0--
B-|-0h1-----------3----1--1--1-1--------1--------1----1-------0--------
G-|-----0h2----2----------2--2-2-----2----------------------0----------
D-|---------0-------------0--0-0--0-----------------------0------------
A-|-------------------------------------------3----3----2--------------
E-|-------------------------------------------------------------3------


    Tu                  turututu tu
e-|-----------5--5-5-----------0--0--0-0----------------0----0--
B-|-------6p5-6--6-6--------6--0--1--1-1-0h1----------3---1--1--
G-|-----5-----5--5-5------5----2--2--2-2-----0h2----2--------2--
D-|-0---------0--0-0----7------2--2--2-2---------0-----------0--
A-|-------------------5--------0--0--0-0------------------------
E-|-------------------------------------------------------------


e-|-0-0--------1-0---3----3--------3--1-0-----------5--||
B-|-1-1------1-----1----1--------0--------------6p5-6--||
G-|-2-2----2-------------------0--------------5-----5--||
D-|-0-0--0-------------------0------------0---------0--||
A-|--------------3---3----2----------------------------||
E-|--------------------------------3-------------------||
Suggest correction
Give kudos to tab author, rate the tab!
1 2 3 4 5
comments
print report bad tab
guest
You may want to rate the tab now too:
select rating
Wanna post a correction for this tab? Suggest correction