Oops, an error
Loading. Please wait.

Vineta (Mariposas) Tab

25 views 1 this week
no commentswrite comment
1 2 3 4 5
3 more votes to show rating
add to favorites
launch autoscroll
font size
0
reset
how to read this tab
guitar tuner
Autoscroll
slow
fast
+/-
esc
set tempo
stop
Help us to improve Ultimate-Guitar.com Take our survey!
×
 viñeta (mariposas)
 
 intro: 
 
 1era guitarra
 
 |-9----7-6-7---6---|--------------------------|
 |----------------8-|----9--9-9-9-8-9----------|
 |----8-------9-8---|--------------------------|
 |-6--------6-------|--------------------------|
 |------------------|--------------------------|
 |------------------|--------------------------|
  
  2da guitarra 
 
 |------------------|--------------------------|
 |------------------|-----------2-4-5----------|
 |------------------|-------1-4-------4--------|
 |------------------|---1-2--------------------|
 |------------------|--------------------------|
 |------------------|-0º-----------------------|

  1era guitarra
 
 |--9---7-6-7---6---|-------------------------|
 |----------------8-|--9--9-------------------|
 |----8-------9-8---|-------------------------|
 |-6--------6-------|-------------------------|
 |------------------|-------------------------|
 |------------------|-------------------------|
   
  2da guitarra
   
 |------------------|-------------------------|
 |------------------|-----------2-4-5-4-------|
 |------------------|-------1-4---------------|
 |------------------|---1-2-------------------|
 |------------------|-------------------------|
 |------------------|-0º----------------------|

  1era guitarra
 
 |--4--4-4-4-4-4-4-4-4-4-4-4-4-4-4-4-4-4-4-4-2/4-4---0**-|
 |---------4-----3-----2-----1-----0---------------------|
 |---------------------------------------3---2---1-------|
 |-------------------------------------------------------|
 |-------------------------------------------------------|
 |-0-----------------------------------------------------|
                 
     

 Estrofa:  

 Hablo del fondo del agua de un charco
 que yace estancada en la calle comun

 |-------------------------------------------------------------------------
 |-----0-------0-------0-------0-----------------------2-------2-----4p5---
 |---1---1---1---1---1---1---1---1------2---------1----------2---2---------
 |-2-------1-------0------------------4---4*----3---3------2-------4-------
 |-------------------------4--------3---------2----------4-----2-----------
 |----------------------------------------------------2--------------------
 

 Hace arco iris de acaite de autos
 despues de la lluvia que vino del sur

 |------------------------------------------------------------------------
 |--0-----0-----0-------0-------0---------------------2-------2-----4p5---
 |------1-----1---1---1---1---1--------2---------1----------2---2---------
 |----2-----1-------0----------------4---4**---3---3------2-------4-------
 |--------------------------4------3---------2----------4-----2-----------
 |-0-------------------------------------------------2--------------------
 
 
 Un remolino levanta unas hojas
 que desaparecen muy verdes aun
 y una silueta en silencio que va
 llena de sombras de si
 pasa la calle detiene su andar
 en la vidriera de un viejo almacen

 |----------------------------------------------------------------
 |---2-----2-2-----2-2-----2-2-----2-2-----2---2**---2*--2--------
 |-------2---2---2---2---2---2---2---2---2---------2---------2*---
 |-----2-------3-------4-------3-------2---------1---------2*-----
 |-0---------0-------0-------0-------0-------0---------0----------
 |----------------------------------------------------------------
 
  --------------0----------------2-----------------4---------2----0--
  ----------0-----0--2-------5-----5-------4-5-----------3-----------
  ------1-----1----------2-----2---------6-----6-------2---2*--2*----
  --------4----------------4-----------6---------6---0---------------
  ----2----------------4-------------4-------------------------------
  -0----------------2------------------------------------------------
 
  -----------4-------------------2---------------4--------
  -------4-5---5-4---2-------2-----2-------4-5-----5------
  -----6-----------------2-----2---------6-----6----------
  ---6---------------------4-----------6------------------
  -4-------------------4-------------4--------------------
  ------------------2-------------------------------------

  -2---2--------------|
  -3---3--0-----0-----|
  -2---2--2-----2-----|
  -0------------1-----|
  -----4--2-----2-----|
  --------------------|

  
  Los libros viejos parecen querer
  arrastrarlos entre el polvo del tiempo y despues
  
 |--------------------------------------------------------------------
 |-----0-------0-------0-------0------------------2-------2-----4p5---
 |---1---1---1---1---1---1---1---1-----2-------1--------2---2---------
 |-2-------1-------0-----------------4---4---3--------2-------4*------
 |-------------------------4-------3-------2--------4-----2-----------
 |-----------------------------------------------2--------------------

  
  Cruza la calle y se vuelve a parar
  frente a un viejo florero con flores de sal

 |----7---------7-------7-------7---------------------------------------
 |--0-----------------------------------4---------3--2-------2-----4p5--
 |----------------------------------------2**--------------2---2--------
 |--------6---6---6---6---6---6---6---4**-------3--------2-------4*-----
 |------7---6-------5-------4-------3---------2--------4-----2----------
 |-0------------------------------------------------2-------------------

  
  Va a respirarlas y cuenta se da
  de las flores sinteticas,rie y se va
  y esa silueta en silencio que va
  llena de sombras de si
  va penetrando en el atardecer
  bajo su cielo que insiste en llover

 |-------------------------------------------------------------------------------------
 |---2-----2-----2-----2-----2-----2-----2-----2------2-----2------2-----2------2------
 |-------2-----2-2---2-----2-2---2-----2-2---2-----2*-----2-----2*-2---2-----2------2*-
 |-----2-----2-----3-----3-----4-----4-----3-----3*-----2-----2*-----1-----1------2*---
 |-0-------------0-----------0-----------0------------0------------0-----------0-------
 |-------------------------------------------------------------------------------------
 
  --------------0-----------------2---------------4-----------2---0---
  ----------0------0--2-------5-----5-------4-5-----5-----3-----3-----
  ------1------1----------2-----2---------6-----6-------2---2---------
  --------4-----------------4-----------6-------------0---------------
  ----2-----------------4-------------4-------------------------------
  -0-----------------2------------------------------------------------
  
  -----------4-------------------2---------------4----
  -------4-5---5-4---2-------2-----2-------4-5-----5--
  -----6-----------------2-----2---------6-----6------
  ---6---------------------4-----------6--------------
  -4-------------------4-------------4----------------
  -----------------2----------------------------------
  
  -2--2--------------
  -3--3--0----------- 
  -2--2--2-----------
  -0-----------------
  ----4--2-----------
  -------------------
  
  Intro 

 
 final del intro agregas el armonico
 -4arm4(19)---
 -------------
 -1-----------
 -------------
 -------------
 -------------               FIN.   


  NOTA:Los numeros que llevan el signo(*)se tocan despacio, y los que llevan el signo
  (**)trata de que ni se escuchen,(para eso escucha atentamente la cancion).

  SALUDOS: A PABLO,ROXANA,MIGUEL,KARLITA,EMANUEL,ROMI,CARLITO,PABLO2,FABIAN,GABRIEL,
  DAMARIS Y A MI GRAN AMOR DANIELA.
Suggest correction
Give kudos to tab author, rate the tab!
1 2 3 4 5
comments
print report bad tab
guest
You may want to rate the tab now too:
select rating
Wanna post a correction for this tab? Suggest correction