Oops, an error
Loading. Please wait.

Vivo En Un País Libre Tab

version 2
version 2

Whole song

43 views 3 this week
no commentswrite comment
1 2 3 4 5
3 more votes to show rating
add to favorites
launch autoscroll
font size
0
reset
how to read this tab
guitar tuner
×
Best way to learn
"Vivo En Un País Libre"
Autoscroll
slow
fast
+/-
esc
set tempo
stop
y aqui les va el punteo.........


e:-----------A12---------------------------------------------------5--7--|
B:-------------A12-------13---12---10-----12----9------5-5--6--7--8------|
G:---------------A12-----------------------------------------------------|
D:-----------------------------------------------------------------------|
A:-----------------------------------------------------------------------|
E:-----------------------------------------------------------------------|


e:----10---8--10--8--7h8-----7-----10h12----10---8----7----------------------|
B:------------------------10----------------------------8----7--8--7--8---10-|
G:------------------------------------------------------------9--------------|
D:---------------------------------------------------------------------------|
A:---------------------------------------------------------------------------|
E:---------------------------------------------------------------------------|


e:------7h8------7----10---8----10--8--7------10---8---10---8--7---------------------|
B:-----------10---------------------------10----------------------10-----------------|
G:-----------------------------------------------------------------------------------|
D:-----------------------------------------------------------------------------------|
A:-----------------------------------------------------------------------------------|
E:-----------------------------------------------------------------------------------|

e:--------------------------------------------|
B:---7-7-8h7---5----8-7-5-7-5-4---------------|
G:------------------------------4---2---0-----|
D:--------------------------------------------|
A:--------------------------------------------|
E:--------------------------------------------|


A mi parecer esta perfecto , cualquier duda no dejen de escribir.

cristian_mcv@
Suggest correction
Give kudos to tab author, rate the tab!
1 2 3 4 5
comments
print report bad tab
guest
You may want to rate the tab now too:
select rating
Wanna post a correction for this tab? Suggest correction