Oops, an error
Loading. Please wait.

Y Mariana Tab

73 views 1 this week
no commentswrite comment
1 2 3 4 5
3 more votes to show rating
add to favorites
launch autoscroll
font size
0
reset
how to read this tab
guitar tuner
×
Best way to learn
"Y Mariana"
Autoscroll
slow
fast
+/-
esc
set tempo
stop
Y MARIANA

Queda bastante bien, pero espero que alguien mejore mi transcripción
Se puede ver en youtube a al menos dos personas que la tocan muy bien.
Yo la toco con la guitarra afinada un tono y medio por debajo de E.
Silvio varía bastantes notas respecto a esta versión, pero si se
escucha atentamente se puede corregir.

Intro:

E-|------3---------------------------------------------------
B-|------3---------------------------------------------------
G-|------0---------------------------------------------------
D-|-------------------------0h1_2----2h0---------------------
A-|----------------0h2-2_3----------------3h2h0--------------
E-|---3--------2_3------------------------------0h2-2h3-3----
           |^^^^^^^^^^^^^(1)^^^^^^^^^^^^^|

E-|-------------------------------------------------3--------
B-|-------------------------------------------------3--------
G-|----------------------------------------0h2-0----0--------
D-|-------------------------0h1_2-----2---------0------------
A-|----------------0h2-2_3-------------0h3-------2-----------
E-|------------2_3-------------------------------------------

E-|----------------------------------------------------------
B-|----------------------------------------------------------
G-|----------------------------------------------------------
D-|-------------------------0h1_2----2h0---------------------
A-|----------------0h2-2_3----------------3h2h0--------------
E-|------------2_3------------------------------0h2-2h3-3----

E-|-------------------------------3---------3---------3------
B-|---------------------------1---------1---------1----------
G-|-------------------------0---0-----0---0-----0---0--------
D-|---------------------------------0---------0--------------
A-|----------------0h2h0--0-------0---------2---------3------
E-|------------2_3-------------------------------------------

E-|------0-2---0-0_3---0-2-----------------------------------
B-|----2-----2-------2-----2---------------------------------
G-|----------------------------------------------------------
D-|--0-----0-----0-------0-----------------------------------
A-|----------------------------------------------------------
E-|----------------------------------------------------------
|^^^^^^^^^^^^^(2)^^^^^^^^^^^^^|


Riff 1

E-|----------------------------------------------3-----------
B-|--------------------1------1---------1------3-------------
G-|------------------0--0---0---0-----0---0---0-0-0----------
D-|----------------------------------------------------------
A-|----------------0------2-------3--------------------------
E-|-----------------------------------------3----------------

Riff 2

E-|-------------------------------------0-2---0-0_3---0-2----
B-|-----------1------1---------1------2-----2-------2-----2--
G-|---------0---0--0---0-----0---0---------------------------
D-|---------------------------------0-----0-----0-------0----
A-|-------0------2-------3-----------------------------------
E-|----------------------------------------------------------

    DO                (VI-2)         SOL
A) Siempre hay quien quisiera ser distinto,
   (Riff1)
   nadie está conforme con lo que le tocó.
(1)                  (VI-2)    SOL
   El de edad quisiera ser un niño
  (Riff 2)
   y el rapaz se raspa sus pelusas en flor.

A)Los que nada tienen quieren algo,
los que tienen algo quieren todavía más.
Para pretender el mundo es largo,
para conformarse se inventado el jamás.

     DO   DO#'         SOL·LAd
B)Un señor quisiera ser mujer
        MIm   FA               RE
y una chica quiere ser señor.
DO     DO#'             SOL·LAd
Hasta Dios sueña que es un poder.
    MIm  DO#'  SOL LAd
Y Mariana, y Mariana,
     MIm      FA               RE
y Mariana quiere ser canción.

(Intro)

A)La tolerancia es la pasión de los inquisidores.
El buen ladrón quisiera no tener que robar.
Le deben al silencio la voz los ruiseñores.
La eternidad no es más que un truco
para continuar.

A)La libertad sólo es visible para quien la labra
y en lo prohibido brilla astuta la tentación.
Nacer a veces mata y ser feliz desgarra.
¿A quién acusaremos cuando triunfe el amor?

B)Un señor quisiera ser mujer
y una chica quiere ser señor.
Hasta Dios sueña que es un poder.
Y Mariana, y Mariana,
                                RE·SOL7
y Mariana quiere ser canción.
   DO    DO#'     SOL·LAd
Y Mariana, y Mariana,
     MIm      FA              RE
y Mariana quiere ser canción.

Final:

E-|----------------------------------------------------------
B-|----------------------------------------------------------
G-|----------------------------------------------------------
D-|-------------------------0h1_2----2h0---------------------
A-|----------------0h2-2_3----------------3h2h0--------------
E-|------------2_3------------------------------0h2-2h3-3----

E-|-------------------------------3---------3--------3-------
B-|---------------------------1---------1---------1--3-------
G-|-------------------------0---0-----0---0-----0----0-------
D-|---------------------------------0---------0------0-------
A-|----------------0h2h0--0-------0---------2--------2-------
E-|------------2_3-----------------------------------3-------
Suggest correction
Give kudos to tab author, rate the tab!
1 2 3 4 5
comments
print report bad tab
guest
You may want to rate the tab now too:
select rating
Wanna post a correction for this tab? Suggest correction