Oops, an error
Loading. Please wait.

Y Nada Más Tab

version 2
version 2

Whole song

Interactive

96 views 1 this week
no commentswrite comment
1 2 3 4 5
3 more votes to show rating
add to favorites
launch autoscroll
font size
0
reset
how to read this tab
guitar tuner
×
Best way to learn
"Y Nada Más"
Autoscroll
slow
fast
+/-
esc
set tempo
stop
(Intro)

e|0-2-3-5-7-5-3-2-  G|----------------
D|----------------
A|----------------
E|----------------

1ª Guitarra                               ----|
                                              |
 |D        |C          |G        |Am          |
e|-----2----------0----------3--------0--     |
B|3---------------------0-----------1---1     |
G|---2---2-----0-----0-----0---0---------     |
D|0--------------------------------------     |
A|----------3---------------------0------     |
E|----------------------3----------------     |
                                              |
 |Em                                          |
e|----0---2---3---2---0---2---0----------     |
B|--0---0---0---0---0---0---0------------     |
G|---------------------------------------     |
D|---------------------------------------     |
A|---------------------------------------     |
E|0--------------------------------------     |
                                              |
1ª Guitarra (Al mismo tiempo la 1ª y 2ª)      |
                                              |
 |D        |C          |G        |Am          |
e|-----2----------0----------3--------0--     |
B|3---------------------0-----------1---1     |
G|---2---2-----0-----0-----0---0---------     | 
D|0--------------------------------------     |   Arpegio de
A|----------3---------------------0------     |    estrofas
E|----------------------3----------------     |      (***)
                                              |
 |Em                                          |
e|----0---2---3---2---0---2---0----------     |
B|--0---0---0---0---0---0---0------------     |
G|---------------------------------------     |
D|---------------------------------------     |
A|---------------------------------------     | 
E|0--------------------------------------     |
                                              |
2ª Guitarra                                   |
                                              |
                                              |
e|2--2--2p3--3--3p2--2p3--3--3h5--3--2p0-     |
B|---------------------------------------     |
G|---------------------------------------     |
D|---------------------------------------     |
A|---------------------------------------     |
E|---------------------------------------     |
                                              |
                                              |
                                          ----|

D        C    G
Esta extraña tarde
    Am       Em
desde mi ventana        D      C     G
Trae la brisa vieja
    Am       Em
de por la mañana


(Coro)

 |Bm               |G 
e|--------2-----------------3-------------
B|3---3-------------3---3-------3---------
G|--4---4---4---------4---4---4---4-------
D|----------------------------------------
A|2------------2--0-----------------------
E|------------------3---------------------

 |Bm               |G 
e|--------2-----------------3-------------
B|3---3-------------3---3-------3---------
G|--4---4---4---------4---4---4---4-------
D|----------------------------------------
A|2------------2--0-----------------------
E|------------------3---------------------

 |Am               |C 
e|--------0-----------------0-------------
B|1---1-------------1---1-------1---------
G|--2---2---2---------0---0---0---0-------
D|----------------------------------------
A|0------------0--2-3---------------------
E|----------------------------------------

 |Am               |C 
e|--------0-----------------0-------------
B|1---1-------------1---1-------1---------
G|--2---2---2---------0---0---0---0-------
D|----------------------------------------
A|0------------0--2-3---------------------
E|----------------------------------------

 |D                |G 
e|------2p3p2-----2---------5--3----------
B|3---3-------3---------3-----------------
G|--2-----------2-----0---0--0---0--------
D|0---------------------------------------
A|----------------------------------------
E|------------------3---------------------

 |D                
e|------2p3p2-----2-
B|3---3-------3-----
G|--2-----------2---
D|0-----------------
A|------------------
E|------------------

(Coro)
Bm
No hay nada aquí:
G                       Bm             G
sólo unos días que se prestan a pasar,
                           Am           C
sólo una tarde en que se puede respirar
                        Am                C
un diminuto instante inmenso en el vivir.
                       D
Después mirar la realidad
        G  D         (Em****)
Y nada más,  y nada más.


(Em****)
 |Em
e|----0---2---3---2---0---2---0----------
B|--0---0---0---0---0---0---0------------
G|---------------------------------------
D|---------------------------------------
A|---------------------------------2p0---
E|0------------------------------------0-

 |Em
e|----0---2---3---2---0---2---0----------
B|--0---0---0---0---0---0---0------------
G|---------------------------------------
D|---------------------------------------
A|---------------------------------------
E|0--------------------------------------


D      C    G 
Ahora me parece
        Am     Em
que hubiera vivido
D      C      G         Am      Em
por viejos caminos.


(Coro) [Rasgueado hasta (Em****)]
Bm
No hay nada aquí:
G                       Bm             G
sólo unos días que se prestan a pasar,
                           Am           C
sólo una tarde en que se puede respirar
                        Am                C
un diminuto instante inmenso en el vivir.
                       D
Después mirar la realidad
        G  D         (Em****)
Y nada más,  y nada más.


(Em****)                                  ----|
 |Em                                          |
e|----0---2---3---2---0---2---0----------     |
B|--0---0---0---0---0---0---0------------     |
G|---------------------------------------     |
D|---------------------------------------     |
A|---------------------------------2p0---     |
E|0------------------------------------0-     |
                                              |
 |Em                                          | e|----0---2---3---2---0---2---0--------0-     |
B|--0---0---0---0---0---0---0----------0-     |
G|-------------------------------------0-     |
D|-------------------------------------2-     |
A|---------------------------------2p0-2-     |
E|0------------------------------------0-     |
                                              |
                                              |
                                          ----|


Se ve un poco complicado, sin embargo dominándola
y escuchando la canción se darán cuenta que es
repetitiva y sencilla, espero les guste.
Suggest correction
Give kudos to tab author, rate the tab!
1 2 3 4 5
comments
print report bad tab
guest
You may want to rate the tab now too:
select rating
Wanna post a correction for this tab? Suggest correction