Oops, an error
Loading. Please wait.

Yo Digo Que Las Estrellas Tab

187 views 3 this week
no commentswrite comment
1 2 3 4 5
3 more votes to show rating
add to favorites
×
Save as Personal and add changes to this tab that will be seen only by you. Learn more ›
×
You can save this tab as Personal to edit and correct it or add notes. All changes will be seen only by you. Learn more »
save as personal
new!
launch autoscroll
font size
0
reset
how to read this tab
guitar tuner
Autoscroll
slow
fast
+/-
esc
set tempo
stop
---------------------------------------------------------------
RIFF "1" (INTRO)
MI9·MI7·LAm·LA4/9·LAm(IV-0·3 V-0·3 VI-0)
MI7/9·LAm·LAm·LAm7*·LA4/9·LAm(VI-0·3 V-0·3 VI-0)

MI9:E9= E7b/9 = 0X0101
Mi7   = E7    = 0x2130
LA4/9 =(A4/9?)= D+sus2/F= Fmaj13sus4= xx3330
Lam7  =  Am7  = 0x2010

h = hammer r= soltar
°°= timbre +/- largo
^ = rasgueo h. abajo
v = rasgueo 
---------------------------------------------------------------
Atención: En ciertos puntos se entrelaza otra guitarra

     E9        E7          Am              A4/9   E7
I..|-------1---0-1---------|-0h1r0---0h1r0--(0)°x--0°x
II.|-----0-----:--3-----0--|-------1-|-----1-3-----1
III|---1-----1-:----1------|---------|-------3-----0-
IV.|-----------:------2----|---------|-------3-----2-
V..|-----------:-----------0-------0*0*----0*|-----|-
VI.|-0---------0--0--------|---------|-------|-----|-
.                          |                 |     |
    guitarra 2 (opción b)  |                 |     |
V..|-----------------------0°°°----0*0*-----0°°---0-3
VI.|-----------------------|---------|-------|--3----

   E9        E7            ^ rasgueo   ^       ^°° E7
   |-------1---0-1---------|-0-v---^-v-|-0-v-^-|-0------
   |-----0-----:--3-----3--|-1-v-^-^-vx|-3-v-^-|-1------
   |---1-----1-:----1------|-2(v)^-^---|-3-v-^-|-0------
   |-----------:------2----|-2---^-----|-3---^-|-2------
   |-----------:-----------0-----------|-------|-----0h3
   |-0---------0--0--------|-----------|-------|---3----
                           |           |       |
                           | ^    ^    | ^     | ^Em
                           |-0----5----|-3-----|-0-
                           |-1----5----|-3-----|-1-
                           |-2----5----|-3-----|-2-
     guitarra 2 (opción b) |-2---(5)---|-------|-2-
                           |-----------|-------|---
                           |-----------|-------|---

>> Riff 1 con variaciones en verso 1:

     E9        E7              Am       A4/9-Em
I..|---------1-|---------0-----|-0-----0-|----------
II.|---0---0---|-3-----3-------|---1*----3----------
III|-----1-----|---1---------1-|-----2---3----------
IV.|-----------|-----2-----2---|---------3----------
V..|-----------|---------------0---------|-0---0(h)3
VI.|-0---------0---------------|---------|---3------
           yo  noche...


     E9        E7            Am         A4/9   Em(rápido)
I..|---------1-0-1r0---------|--0-----0-|-------------0--
II.|---0---0---|-----3-----3-|----1*----3*----3-1-------1
III|-----1-----|-------1-----|------2---|---3-------2----
IV.|-----------|---------2---|----------|-3------(2)-----
V..|-----------|-------------|0--------(0?)-----0--------
VI.|-0---------0-----0-------|----------|----------------
              no  tan bellas


-------------------------------------------------------------
 RIFF "2" (VERSO 1)                   REm·SOL·DO·SOL·LAm·SOL
                                      FA·Rem·DO·SOLsus4·SOL
-------------------------------------------------------------
                                      SOLsus4:Gsus4= [3X0013]

                                                    G[32003X]
 Dm         G                 C       G       Am    *arreglo*
--1--1------|---------------|-0-----|------3-|-------|-------
--3--3------|-0-----0-3-0---|-1---1-|----3---|---0---|---3*--
--2--2------|---0---------0-|---0---|--------|-2---2*|-----0*
--0--0------|-----0---------|-------|--------|-------|-------
-(0)(0)-0-0-|---------------|-3-----|-2------|-0-----|-------
------------3---------------|-------|--------|-------|-3-----
       y/es/culpa de ellas  |  de la  noche eluniverso...
                            |                        |
                            | C      [G/B]     Am    |
                            |-------|--------|-------|
                            |-1°°°°-|-0°°°°--|-------|
                            |-------|--------|2°°°°--|
      guitarra 2 (opción b) |-------|--------|-------|
                            |-3°°°°-|-2°°°°--|0°°°°--|
                            |-------|--------|-------|

 F            Dm             C      Gsus4[3X0013] G
--(1)----(1)|---1----------|-------0-|-3---3-----|-3--------
---1------1-|-------3------|-1-----1-|---1---1-0-|---0-----0
--(2)-2---2-|-----2--------|(0)--0-0-|-----------0-----0----
--------3---|-0------------|---0-----|-----------|-------0--
------------|----------0h2h3---------|-----------|----------
-1----------|--------------|---------3---------3-|----------
     cualson        d/nochesy estreeee    eeeeeee*

                                           *[pasa a RIFF "1":
                                                 ..llas*[E9]

Minuto 0:58  Am7
|-0------
|-1----1-
|-0--0---
|-2------ (el riff 1 termina así, y luego sigue:)
|--------
|--------

--------------------------------------------------------------
 RIFF "3"    [DO·LA#·DO·LA#]x2 > LAm·MIm·FA·DO·G  G·Am·G*·F·Em
--------------------------------------------------------------
                                               LA#: A#= x13331
                                                  G/B= x2000x

   C          A#        (G/B)  C         A#
---|-------0-|-----------|---|-------0-|-----------
---1-1-------|---3-----3-|-0-1-1-------|---3-----3-
---|-----0---|-3---3-----|---|-----0---|-3---3-----
---|---2-----|-------3---|---|---2-----|-------3---
-2-3---------|-1---------|-2-3---------|-1---------
---|---------|-----------|---|---------|-----------
              mas allá 


   C          A#        (G/B)  C         A#
---|-------0-|-----------|---|-------0-|-----------1--
---1-1-------|---3-----3-|-0-1-1-------|---3-----3----
---|-----0---|-3---3-----|---|-----0---|-3---3------(3)
---|---2-----|-------3---|---|---2-----|-------3------
-2-3---------|-1---------|-2-3---------|-1------------
---|---------|-----------|---|---------|--------------
         y/tonto q./sabe      es el 


Am  **      Em              F           C
-0--0------|------------0-|---------1-|-------0--------
-1--1------|--0-------0---|---1-------|-1-------1------
-2--2------|----0---0-----|-----2-----|-----0-----0---0
-2--2------|------2-------|-------3---|---2---------2--
(0)(0)-0-0-|--------------|-----------|-3--------------
------------0-------------|-1---------|----------------
     yd.q./presta          para peón    del veneno...

[Am] **: Sobre este segundo rasgueo, la guitarra 2
         suma este acorde: Em11 o Em/D: xx7777 (Min.1:14)

 G               Am    G[32000x] F       Em
---------------|-------|-------|----(1)|----------
-1-1-0-----0---|-1°°°--|-0°°°--|-------|----------
---------0--(0)|-------|-------|-2°°°--|-1°°°-----
-------0-------|-------|-------|-------|------(2°)
---------------|-0°°°--|-------|-------|----------
-3-------------|-------|-3°°°--|-1°°°--|-0°°°-----
     E.D.tonto/quie     ee ro ...

-----------------------------------------------------------
 RIFF "4"                  Am7·A4/9·Am  >  Am·A4/9·[Am/Am7]
-----------------------------------------------------------
          Am7= 0x2010  (A4/9?)=D+sus2/F= Fmaj13sus4= xx3330

VERSIÓN DETALLADA

   ^  ^   ^  v     ^ v                            Am7
---0--0-|-0-(0)-|-0-(0)-(0)-|-0-v---^-v-|-0-v-^-|-0------
---1--1-|-3-(0)-|-1-(1)-(1)-|-1-v-^-^-vx|-3-v-^-|-1------
---0--0-|-3-(3)-|-2-(2)-(2)-|-2(v)^-^---|-3-v-^-|-0------
---2--2-|-3-----|-2---------|-2---^-----|-3---^-|-2------
-0------|-------|-----------0-----------|-------|-----0h3
--------|-------|-----------|-----------|-------|---3----
                |           | ^    ^    | ^     | ^Am
                |-----------|-0----5----|-3-----|-0-
                |-----------|-1----5----|-3-----|-1-
                |-----------|-2----5----|-3-----|-2-
                |-----------|-2---(5)---|-------|-2-
    guitarra 2  |-------0h3-|-----------|-------|---
                |---0h3-----|-----------|-------|---


VERSION SIMPLIFICADA (GUITARRA 1+2)

4a) Este riff se toca 2 veces antes de la letra,


Am7       A4/9   Am
   ^  ^   ^  v    ^          Am           A4/9    Am[Am7]
---0--0-|-0-(0)-|(0)--------|-0-v---^-v-|-0-v-^-|-0------
---1--1-|-3-(0)-|(1)--------|-1-v-^-^-vx|-3-v-^-|-1------
---0--0-|-3-(3)-|(2)--------|-2(v)^-^---|-3-v-^-|-2------
---2--2-|-3-----|(2)--------|-2---^-----|-3---^-|-2------
-0------|-------|-------0h3-0-----------|-------|-----0h3
--------|-------|---0h3-----|-----------|-------|---3----


4b) Y este otro durante el tercer verso :

Am7       A4/9       Am/Am7
   ^  ^   ^  v  ^
---0--0-|-0-(0)(0)-|----------
---1--1-|-3-(0)(0)-|----------
---0--0-|-3-(3)(0)-|----------
---2--2-|-3----(3)-|----------
-0------|----------|-----0h3-0
--------|----------|-0h3------

Yo digo que no hay talante
mas claro que ir desnudo
pues cuando se tiene escudo
luego se quieren los guantes
Y el que diga que me aguante
debajo de una sotana
le encajo una caravana
de sentimientos...de sentimientos...


4c) cierre

Am7       Dm7   G
   ^°°°    ^°°°
---0--^x-|-1-|-3-
---1--^--|-1-|-3-
---0--^--|-2-|-0-
---2-(^)-|-0-|-0-
-0-------|-0-|-2-
---------|---|-3- >>Vuelve al riff "4a" [2 veces]
  desenti mientos gigantes.

>> De nuevo, RIFF 1
>> De nuevo, >> Riff 1 con variaciones, durante verso 4 :


 E9        E7              Am       A4/9        Em
---------1-|-------0--------|-0-----0-|---------|------
---0---0---|-3-------3------|---1*----|------3--1-°°°°-
-----1-----|---1----------1-|-----2---|----3----2-°°°°-
-----------|-----2------2---|---------|--3------|------
-----------|----------------0--------*1*--------0-°°°°-
-0---------0----------------|---------|---------|------
           yo d.q.n./canto  q/saledela  selvaaa |
                                                |
                                             V  |----0h3
     guitarra 2(opcion b) cuerdas 5 y 6 >>   VI |0h3----


Nota: En A4/9 *1* el bajo es cuerda 5 al aire según la
grabación, pero creo que aquí un pequeño cambio suena bien.


>> RIFF 2 FINAL:

Dm          G               C       G       Am          (G)
--1--1------|---------0-----|-------|-------|---5-----5-:-
--3--3------|-0-----0---0---|------1|-1°°°°-|---5-----5-:-
--2--2------|---0---------0-|----1--|-------|---5-5---5-:-
--0--0------|-----0---------|-------|-------|-------7---:-
-(0)(0)-0-0-|---------------|-3-----|-------|-0°°°------:-
------------3---------------|-------|-0°°°°-|-----------3-

 F            Dm             C      Gsus4[3X0013] G
---------1--|---1---------|-------0-|-3---3-----|---------
---1-------1|-3-----3-----|-1-----1-|---1---1-0-|-3-0-----
-----2------|-----2-------|(0)--0-0-|-----------0-----0---
-------3----|-0-----------|---0-----|-----------|-------0-
------------|---------0h2h3---------|-----------|---------
-1----------|-------------|---------3---------3-|---------

>> RIFF 1 de nuevo + ESTE CIERRE :

               Am6/E °°°°°
-------------|-2-----|
-------------|-1-----|
-------------|-2-----|
-------------|-2-----|
-----0h3-(0)-|-0-----|
-0h3------0--|-------| ES TODO, FÁCIL !


GUIA POR ACORDES -
Tomado de Cancionero de S,R por Zigor 
--------------------------------------------------------


   MI9              (MI7/9)
A)Yo digo que las estrellas
      (LAm·LA4/9)     LAm(VI-0·3 V-0·3 VI-0)
le dan gracias a la noche
 MI9                   MI(MI7/9)
porque encima de otro coche
 (LAm·LAm7*·LA4/9)    LAm REm7
no pueden lucir tan bellas.
 (V-0)   SOL             DO
Y digo que es culpa de ella
 (V-2)    LAm  (V-3)  FA·REm
de la noche, el universo
                   (V-0·2)
cual son culpables los versos
 DO                     SOL  MI9(VI-0 V-2·3·2)DO
de que haya noches y estrellas.

                      LA#(V-2) DO
B)Yo digo que no hay quien crezca
               LA#(V-2)DO
mas allá de lo que vale
                LA#(V-2)DO
y el tonto que no lo sabe
                        LA#
es el que en zancos se apresta
 LAm                   MIm
y digo que el que se presta
      FA   DO  (SOL4)
para peón del veneno
 SOL                   LAm(LAm/SOL·FA)
es doble tonto y no quiero
 MI                  LAm
ser bailarín de su fiesta.

(VI-0·3 V-0·3·0)

   LAm7*       LA4/9   LAm(VI-0·3 V-0·3·0)
C)Yo digo que no hay talante
 LAm7*     LA4/9     LAm(VI-0·3 V-0·3·0)
mas claro que ir desnudo
 LAm7*          LA4/9   LAm(VI-0·3 V-0·3·0)
pues cuando se tiene escudo
 LAm7*    LA4/9        LAm(VI-0·3 V-0·3·0)
luego se quieren los guantes

C)Y el que diga que me aguante
debajo de una sotana
le encajo una caravana
de sentimientos...de sentimientos...
 (LAm7*·LA4/9)   REm7  SOL·LAm(LAm7*·LA4/9)
de sentimientos gigantes.

(VI-0·3 V-0·3·0 LAm7*·LA4/9 VI-0·3 V-0·3 VI-0)

B)Yo digo que no hay mas canto
que el que sale de la selva
y será el que lo entienda
fruto del árbol mas alto
y digo que cuesta tanto
y que hay que cruzar la tundra
pero al final la penumbra
se hace arcoiris del canto.  [Intro]
Suggest correction
Give kudos to tab author, rate the tab!
1 2 3 4 5
comments
print report bad tab
guest
Wanna post a correction for this tab? Suggest correction