Oops, an error
Loading. Please wait.

Mírame, Háblame Tab

11 views 1 this week
no commentswrite comment
1 2 3 4 5
3 more votes to show rating
add to favorites
launch autoscroll
font size
0
reset
how to read this tab
guitar tuner
×
Best way to learn
"Mírame, Háblame"
Autoscroll
slow
fast
+/-
esc
set tempo
stop
E ----------------------------------
B ----------------------------------
G --5-3-5----5-33-5-3---------------  X2
D -------3-----------3--------------
A ----------------------------------
E ----------------------------------

E ----------------------------------------------
B ----------------------------------------------
G -------------------3-5/10-10-10-8-10-8-8-8-8--
D -3-5-6-------3-5-6----------------------------
A -------3-5-6----------------------------------
E ----------------------------------------------

E ----------------------------------
B ----------------------------------
G --5-3-5----5-33-5-3---------------  X2
D -------3-----------3--------------
A ----------------------------------
E ----------------------------------

E --8--6------8--8-9------8--6-------8--9------
B -9--7---7--9--9--9-----9--7---7---9---9------
G -------8---------------------8---------------
D ---------------------------------------------
A ---------------------------------------------
E ---------------------------------------------

E ---------------------------------------------
B ---------------------------------------------
G ---------------------------------------------
D ------------2--------------------------------
A ---2-2----5----------------------------------
E ---------------------------------------------


BUENO ESTE ES EL EL TEMA AMI ME SUENA BIEN.
ESPERO QUE LES GUSTE ATT. MAXI
Suggest correction
Give kudos to tab author, rate the tab!
1 2 3 4 5
comments
print report bad tab
guest
You may want to rate the tab now too:
select rating
Wanna post a correction for this tab? Suggest correction