Oops, an error
Loading. Please wait.

El Parrandero Tab

87 views 1 this week
no commentswrite comment
1 2 3 4 5
3 more votes to show rating
add to favorites
launch autoscroll
font size
0
reset
how to read this tab
guitar tuner
×
Best way to learn
"El Parrandero"
Autoscroll
slow
fast
+/-
esc
set tempo
stop
ESTA CANCION SON DE LAS QUE NUNCA FALTAN EN UNA FIESTA
DE QUINCE O EN UN BAR EN BOGOTA. UN SALUDO PA MI COMPADRE
CHUCHO, Y QUE OJALA PASEMOS FIESTAS COMO LA DE LOS QUINCE
DE MANUELA.....AHH Y QUE LAS INDUSTRIAS DEJEN DE JODER
CONTAMINANDO!!!!!!


Riff 1

Es que yo no entiendo lo que pasa...

e|----------------------|
B|--/7-7-7-7-7-7---8--7-|
G|--/8-8-8-8-8-8---8--8-|
D|----------------------|
A|----------------------|
E|----------------------|

Riff 2

Ya no me soportan en mi casa

e|------------------------|
B|-10p8-7-8-7-------------|
G|-------------9-------7--|
D|-----------------7------|
A|------------------------|
E|------------------------|


SOLO ACORDEON

e|-17-17-17--17-19-19--17-17-17--15--|
B|-15-15-15--15-15-15--15-15-15--15--|
G|-----------------------------------|
D|-----------------------------------|
A|-----------------------------------|
E|-----------------------------------|

e|-17-15-14-----15-14------14--------------------|
B|-----------17-------17-15----17-15-14?14h15----|
G|-----------------------------------------------|
D|-----------------------------------------------|
A|-----------------------------------------------|
E|-----------------------------------------------|

e|-14------/19-17-19-17--15-14--17-------|
B|----15-14--------------------------15--|
G|---------------------------------------|
D|---------------------------------------|
A|---------------------------------------|
E|---------------------------------------|

e|-----------------------------------|
B|-----------------------------------|
G|-/14-12-14-12-14-12-14-12-11h12p11-|
D|-----------------------------------|
A|-----------------------------------|
E|-----------------------------------|

e|-----------17-15-17---------17------|
B|---------------------15h17------15--|
G|-14-11-12---------------------------|
D|------------------------------------|
A|------------------------------------|
E|------------------------------------|

e|----------16-14-16--------16----|
B|-------------------14h16-----14-|
G|--14-11-12----------------------|
D|--------------------------------|
A|--------------------------------|
E|--------------------------------|

e|-----------19-17-19?17p15----17-----|
B|--------------------------19----17--|
G|-14-11-12---------------------------|
D|------------------------------------|
A|------------------------------------|
E|------------------------------------|

e|-----------17-15-17----------------19-|
B|--------------------17p15-13-15-17----|
G|--14-11-12----------------------------|
D|--------------------------------------|
A|--------------------------------------|
E|--------------------------------------|

Riff 3

Con mi guitarra y mi sombrero...

e|-7/8-8-7/8-8-8-8------------|
B|-7-7-7-7-7-7-7-7--8--7------|
G|-------------------------7--|
D|----------------------7-----|
A|----------------------------|
E|----------------------------|

Riff 4

Yo no conosco el guayabo...

e|-------5--8-------------|
B|----7-------/8-5--------|
G|-/7-------------------7-|
D|-------------------7----|
A|------------------------|
E|------------------------|
Suggest correction
Give kudos to tab author, rate the tab!
1 2 3 4 5
comments
print report bad tab
guest
You may want to rate the tab now too:
select rating
Wanna post a correction for this tab? Suggest correction