Oops, an error
Loading. Please wait.

Supe Al Verte Chords

16 views 1 this week
no commentswrite comment
1 2 3 4 5
3 more votes to show rating
add to favorites
launch autoscroll
font size
0
reset
transpose
0
reset
display chords
guitar tuner
Autoscroll
slow
fast
+/-
esc
set tempo
stop
Help us to improve Ultimate-Guitar.com Take our survey!
×
Intro:  C G Am F
         C                           G               Am             F
E------------------------------------------------------0--0----1----------
B----1---1--------1------------2--2---------2---------------------1-------
G---------------0---0---------------------0----0--------------------2-----
D---------------------------------------------------------------------3---
A-3-----------3-------------------------------------0----------3---------3
E-----------------------------3---------3---------------------------------

Este pedazo es en acordeón,
pero aquí esta en guitarra. Esto se toca dos veces
En el coro  se tocan los acordes con cejilla.

C                      G
Caminando sin destino en el silencio de mi alma
Am                                  F
la cuidad me invita a contemplarla
C                            G
dejo que me lleve el viento y cuando yo menos lo pienso
Am                             F
te veo y no puedo ni creerlo

E-------------------3-------3-3-3---1-0-1-0-------------0-----
B-1----1-1-1-3---1----------------------------1----1---------3

C                          G
Cae la noche en esa playa donde hasta la luna canta
Am                 F
tus ojos me buscan ya no te cambio por nada
C                G
quede enloquecido solo con mirarte
Am                 F
estoy en un sueño no voy a olvidarte

C*                G*
mira, siente que te hablo desde el corazon
Am*           F*
supe al verte que perderia la razon
C*           G*
y quererte es todo lo que quiero yo
Am*         F
y tenerte es lo mejor que a mi me sucedió


             C                     G                    Am      F
E------------------------------------------------------0--0----1----------
B----1---1--------1------------2--2---------2---------------------1-------
G---------------0---0---------------------0----0--------------------2-----
D---------------------------------------------------------------------3---
A-3-----------3-------------------------------------0----------3---------3
E-----------------------------3---------3---------------------------------

C                       G
Despertar con tu mirada, tu sonrisa en la mañana
Am                            F
no importa si el tiempo pasa a mi no me importa nada
C                G
solo estar contigo y poder tocarte
Am                      F
llevarte hasta el cielo y alla enamorarte

C*                G*
mira, siente que te hablo desde el corazon
Am*           F*
supe al verte que perderia la razon
C*           G*
y quererte es todo lo que quiero yo
Am*         F
y tenerte es lo mejor que a mi me sucedió

C
si te beso no puedo parar
G
en tus ojos me quiero quedar
Am
es un sueño que se cumple
F
cuando tu a mi lado estas
C
me quiero quedar contigo
G
siempre sentirte conmigo
Am
que pasen las horas
F
y en el mundo solo estemos tu y yo


C*                G*
mira, siente que te hablo desde el corazon
Am*           F*
supe al verte que perderia la razon
C*           G*
y quererte es todo lo que quiero yo
Am*         F
y tenerte es lo mejor que a mi me sucedió
Suggest correction
Give kudos to tab author, rate the tab!
1 2 3 4 5
comments
print report bad tab
guest
You may want to rate the tab now too:
select rating
Wanna post a correction for this tab? Suggest correction