Oops, an error
Loading. Please wait.

Y Llegaste Tú Tab

version 2
version 2

Whole song

57 views 1 this week
no commentswrite comment
1 2 3 4 5
3 more votes to show rating
add to favorites
launch autoscroll
font size
0
reset
how to read this tab
guitar tuner
×
Best way to learn
"Y Llegaste Tú"
Autoscroll
slow
fast
+/-
esc
set tempo
stop
Esta muy facil, nada mas que el solo es un poco complicado, Just Practice
................................................................................
Esta canción se la pedí a Miguel para que la sacara, y se la dedico a él con 
todo mi corazón, es la persona más especial en mi vida, 
LO AMO... con todo mi amor... Tu novia, Karla.

INTRO

               D      F#m7                    Bm7     A      
E|------------------------------2h3p2--0--------------------------------| 
B|-----0--3-5--5/7--7--5-----3------------3--3/5--0--3------------------|
G|--2---------------7---------------------------------------------------|
D|----------------------------------------------------------------------|
A|-------------0-------2------------------------------------------------|
E|----------------------------------------------------------------------|


                  E                   G          D
E|-----3p2--0---------------------------------5-------------------------| 
B|--3----------3--3/5--0------3--5--5/6\5--3----------------------------|
G|----------------------------------------------------------------------|
D|-----------------------------------------------0----------------------|
A|----------------------------------------------------------------------|
E|----------------------------------------------------------------------|

                 Dm       A
E|----------------------------------------------------------------------| 
B|--3--5--6--8--8/10--10--8---------------------------------------------|
G|----------------------------------------------------------------------|
D|----------------------------------------------------------------------|
A|----------------------------------------------------------------------|
E|----------------------------------------------------------------------|


D                               F#m
Yo solía pensar que sabía quien eras tú,
     Bm                                   G          F#m
no sabía que dentro de ti yo iba a encontrar la luz,
      Em  
no sabía que existía un mundo así,
      A                       D
no sabía que podía ser tan feliz.


      D                             F#m
Y la vida pasaba de largo vacía sin emoción,
         Bm                  A                    G   E             
no había nada flotando en el aire abrazándome el corazón,
           Em     
y llegaste tú, y el mundo me abrazó, 
            A
y llegaste tú, y el mundo se paró


(Coro)
           D                                   C
Y llegaste tú, y me sorprendió el poder que había en este amor,
           G                                     A
y llegaste tú, una bendición, aun recuerdo el momento en que todo cambió,
           D                                F#
y llegaste tú, y me sorprendió el poder que hay en este amor,
           Bm            A            E         G  A
y llegaste tú, una bendición, aun recuerdo 
                           D
cuando llegaste tú.


E|-----------2h3--3/5--5------------------------------------------------| 
B|-----0--3-------------------0--3--5--3--5/6\5--3--0-------------------|
G|--2--------------------------------------------------2h4p2------------|
D|----------------------------------------------------------------------|
A|----------------------------------------------------------------------|
E|----------------------------------------------------------------------|


D                                       F#m
Hoy que estoy en tus brazos recuerdo mi soledad,
      Bm                  A                 G    E
y me río pensando en las veces que yo te dejé pasar,
                Em
y llegaste tú, y el mundo me abrazó, 
            A
y llegaste tú, y el mundo se paró


(Coro)
           D                                   C
Y llegaste tú, y me sorprendió el poder que había en este amor,
           G                                     A
y llegaste tú, una bendición, aun recuerdo el momento en que todo cambió,
           D                                F#
y llegaste tú, y me sorprendió el poder que hay en este amor,
           Bm            A            E         G  A
y llegaste tú, una bendición, aun recuerdo 
                           D
cuando llegaste tú.


E|-----0--2--3--5---5--5--5/7--5----------------------------------------| 
B|--2-------------------------------------8--7--------------------------|
G|--------------------------------7/9\7---------10--9--8----------------|
D|----------------------------------------------------------------------|
A|----------------------------------------------------------------------|
E|----------------------------------------------------------------------|

E|-------6--7--9--9/12--10--9--10---10--14--14--10--12------------------| 
B|--7h8-----------------------------------------------------------------|
G|----------------------------------------------------------------------|
D|----------------------------------------------------------------------|
A|----------------------------------------------------------------------|
E|----------------------------------------------------------------------|

E|--12--10--------------------------------------------------------------| 
B|----------12--10--12---7--7/9\7---------------------------------------|
G|---------------------------------4/6\4--2--1--------------------------|
D|----------------------------------------------4--3--------------------|
A|----------------------------------------------------------------------|
E|----------------------------------------------------------------------|

E|-------------------------------8------8--10--11-----------------------| 
B|---------------------8--9--11-----11----------------------------------|
G|--------------8--10---------------------------------------------------|
D|-------8--10----------------------------------------------------------|
A|---10-----------------------------------------------------------------|
E|----------------------------------------------------------------------|

(Coro)
           D#                                C#
Y llegaste tú, y me sorprendió el poder que había en este amor,
           G#                                   A#
y llegaste tú, una bendición, aun recuerdo el momento en que todo cambió,
            D#                               G
y llegaste tú, y me sorprendió el poder que hay en este amor,
             Cm          A#          F         G#  A#
y llegaste tú, una bendición, aun recuerdo 
                D#
cuando llegaste tú.
Suggest correction
Give kudos to tab author, rate the tab!
1 2 3 4 5
comments
print report bad tab
guest
You may want to rate the tab now too:
select rating
Wanna post a correction for this tab? Suggest correction