Oops, an error
Loading. Please wait.

Y Llegaste Tú Tab

version 3
version 3

Whole song

48 views 1 this week
no commentswrite comment
1 2 3 4 5
3 more votes to show rating
add to favorites
launch autoscroll
font size
0
reset
how to read this tab
guitar tuner
Autoscroll
slow
fast
+/-
esc
set tempo
stop
Help us to improve Ultimate-Guitar.com Take our survey!
×
buenas!! edite la cancion porque note que faltaba algo...
aqui les dejo los tab para que os dediqueis a sorprender!
esta cancion se la dedico a una amiga, que desde que llego a cambiado
todo mi mundo aunque ella no lo sepa....
bueno eso, espero que les guste...mucho éxito y saludos a renca la lleva!


Intro

               D      F#m                     Bm7    A
e/------------------------------2h3p2--0-----------------/
B/-----0--3-5--5/7--7--5-----3------------3--3/5--0-3----/
G/--2---------------7------------------------------------/
D/-------------------------------------------------------/
A/-------------0-------2---------------------------------/
E/-------------------------------------------------------/

                  E                   G          D
e/-----3p2--0---------------------------------5----------/
B/--3----------3--3/5--0------3--5--5/6\5--3-------------/
G/-------------------------------------------------------/
D/-----------------------------------------------0-------/
A/-------------------------------------------------------/
E/-------------------------------------------------------/

                 Dm       A
e/-------------------------------------------------------/
B/--3--5--6--8--8/10--10--8------------------------------/
G/-------------------------------------------------------/
D/-------------------------------------------------------/
A/-------------------------------------------------------/
E/-------------------------------------------------------/


D                                F#m
yo solía pensar que sabia quien eras tu
     Bm                                 G
no sabia que dentro de ti yo iba a encontrar la luz
     Em                   F#m
no sabia que existia un mundo así
     G              A       D
no sabia que podia ser tan feliz

            G         A
anananara  naaaaaaa  nananana


      D                           F#m
la vida pasaba de largo vacia sin emocion
       Bm                                         G
no habia nada flotando en el aire abrazandome el corazón
         Em                      F#m
y llegaste tu y el mundo me abrazo
         G                     A
y llegaste tu y el mundo se paro


           D
y llegaste tu y me sorprendio
             D/C
el poder que habia en este amor
           G

y llegaste tu una bendicion
                  A                       A7
aun recuerdo el momento en que todo cambio


           D
y llegaste tu y me sorprendio
             F#7el poder que hay en este amor
           Bm
y llegaste tu una bendicion
         Em G  A                  D
aun recuerdo      cuando llegaste tu


e/-----------2h3--3/5---------------------------------------/
B/-----0--3----------------0--3--5--3--5/6\5--3--0----------/
G/--2-----------------------------------------------2h4p2---/
D/----------------------------------------------------------/
A/----------------------------------------------------------/
E/----------------------------------------------------------/


hoy que estoy en tus brazos recuerdo mi soledad

y me rio en las veces que yo te deje pasar

y llegaste tu y el mundo me abrazo

y llegaste tu y el mundo se paro


y llegaste tu y sorprendio

el poder que avia en este amor

y llegaste tu una bendicion

aun recuerdo el momento en que todo cambio


y llegaste tu y me sorprendio

el poder que habia en este amor

y llegaste tu una bendicion

aun recuerdo cuando llegaste tu


E/-----0--2--3--5---5--5--5/7-5----------------------------/
B/--2------------------------------------8--7--------------/
G/-------------------------------7/9\7---------10--9--8----/
D/---------------------------------------------------------/
A/---------------------------------------------------------/
E/---------------------------------------------------------/

E/-------6--7--9--9/12--10--9--10---10--14--14--10--12-----/
B/--7h8----------------------------------------------------/
G/---------------------------------------------------------/
D/---------------------------------------------------------/
A/---------------------------------------------------------/
E/---------------------------------------------------------/

E/--12--10-------------------------------------------------/
B/----------12--10--12---7--7/9\7--------------------------/
G/---------------------------------4/6\4--2--1-------------/
D/----------------------------------------------4--3-------/
A/---------------------------------------------------------/
E/---------------------------------------------------------/

E/------------------------------8------8--10--11-----------/
B/--------------------8--9--11-----11----------------------/
G/-------------8--10---------------------------------------/
D/------8--10----------------------------------------------/
A/--10-----------------------------------------------------/
E/---------------------------------------------------------/


           D
y llegaste tu y em sorprendio
             D/C
el poder que avia en este amor
           G
y llegaste una bendicion
                  A                       A7
aun recuerdo el momento en que todo cambio
           D
y llegaste tu y me sorprendio
             F#m7
el poder que hay en este amor
           Bm
y llegaste tu una bendición
        Em  G  A                    D  G
aun recuerdo       cuando llegaste tu


Em        A                   D   G
llegaste tu, cuando llegaste tu
Em        A                   D   G
llegaste tu, cuando llegaste tu
Em        A                   D   G
llegaste tu, cuando llegaste tu
Em        A                   D
llegaste tu, cuando llegaste tu
Suggest correction
Give kudos to tab author, rate the tab!
1 2 3 4 5
comments
print report bad tab
guest
You may want to rate the tab now too:
select rating
Wanna post a correction for this tab? Suggest correction