Oops, an error
Loading. Please wait.

Educación Bass Tab

13 views 1 this week
no commentswrite comment
1 2 3 4 5
3 more votes to show rating
add to favorites
launch autoscroll
font size
0
reset
guitar tuner
×
Best way to learn
"Educación"
Autoscroll
slow
fast
+/-
esc
set tempo
stop
INTRO
G----------------------------------------------
D----------------------------------------------
A--5-5-5-----------5-5-5----8-7-8-------------- 
E-----------6-5-4------------------------------


VERSO(SIGUE LA MISMA ESTRUCTURA KE EL INTRO HASTA LLEGAR AL CORO)

CORO

DEBERIAMOS QUEMAR TODOS LOS ........

G----------------------------------------------------------------
D----------------------------------------------------------------
A---3-3-3-3-3-3-3-3-3--2-2-2-2-2-2-2-2-2-------------------------
E------------------------------------------3-3-3-3-3-3-3-3-3-3-3-

ASI SIGUE HASTA LLEGAR AL PUNTEO DE LA GUITARRA
MIENTRAS EL BAJO HACE 

G--------------------------------------------------------------------------
D--------------------------------------------------------------------------
A----3----------5-5-5-5-5-5-5-5-5------------------------------------------
E--------3-----------------------------------------------------------------

EL SISTEMA DE ENSEÑANZA NO ESTIMULA ..........(SIGUE LO MISMO)

DESPUES VIENE EL VERSO KE ES IGUAL KE EL INTRO 
LUEGO SE REPITE EL CORO CUATRO VECES TEMINANDO EN SOL


LETRA
Desde pequeños ¡Domesticación!
premio y castigo es la educación
juego en el patio, dura media hora
la disciplina, diez horas mas. 
Deberíamos quemar todos los colegios 
deberíamos quemarlos ¡YA! 
El instituto es otra cárcel 
donde aprendes poco y mal. 
Días de examen, selectividad 
algo que pronto olvidarás. 
Deberíamos quemar todos los institutos 
deberíamos quemarlos ¡YA! 
El sistema de enseñanza 
no estimula el aprender
persigue embrutecerte 
ser útil a la sociedad 
se sumiso y no cuestiones 
acepta la autoridad
inculto, sigue la norma
 no pienses mas que los demás.
 La facultad, crítica muerta 
profesorado, mediocridad 
los contenidos manipulados 
juegas tu futuro en un tribunal. 
Deberíamos quemar la universidad 
deberíamos quemarla ¡YA!. 
Deberíamos quemar el sistema burgués de enseñanza 
deberíamos quemarlo ¡YA!.

VIVA EL PUNK MIERDA !!!!!!!!!!!!!!!!!!!!!!!!!!

ESTA TAB VA DEDICADA A LOS WEAS DEL GRUPO IMPOTENZIA SOZIAL, YA KE NOS DEMORAMOS 
MIL AÑOS EN SAKAR ESTE TEMA E IGUAL NOS PIFIAMOS...CHAO
Suggest correction
Give kudos to tab author, rate the tab!
1 2 3 4 5
comments
print report bad tab
guest
You may want to rate the tab now too:
select rating
Wanna post a correction for this tab? Suggest correction