Oops, an error
Loading. Please wait.

Miseria Y Traición Tab

32 views 1 this week
no commentswrite comment
1 2 3 4 5
3 more votes to show rating
add to favorites
launch autoscroll
font size
0
reset
how to read this tab
guitar tuner
×
Best way to learn
"Miseria Y Traición"
Autoscroll
slow
fast
+/-
esc
set tempo
stop
TRANSCRIPCION: JUAN CARLOS TREJO LEON (HARDPUNK)


INTRO: Dm A# Am G (2 veces)
        
Fig. 1 (2 veces)   
     Dm              A#              Am              G   
1|---------------------------------------------------------5----
2|--------6P5-------------6P5-------------6P5-----------6-------
3|---7--7------5-----7--7------5-----7--7------5-----7----------
4|--------------------------------------------------------------
5|--------------------------------------------------------------
6|--------------------------------------------------------------


verso (ritmo ska)
Dm   A#     Am                    G
Años...  luchando en la calle, metidos en mil movidas.

Dm     A#    Am                 G
Juntos... hechando de menos un 'yo te quiero amigo'.

Dm                         A#   
Y llega un mal día en que todo revienta,

   Am              G
la policía inicia la represión.

Dm                       A#   
Ya no hay compañeros, quizá ya no hay colegas.

Am                          G
Nos quedamos solos frente a la difamación.


PRE-CORO (ritmo de punk)
Dm              A#       Am        G
Y ahora con el miedo no veo las banderas.

Dm A# Am 
Ooohhhh 

G
Sigo puño en alto.

FIG 1: (2 VECES)


VERSO 2 (RITMO DE SKA)

Dm       A#    Am                        G
Críticas... salvando el pellejo a costa de los demás.

Dm       A#    Am                        G
Críticas... en vez de hechar basura deberían apoyar.

Dm                       A#   
El enemigo es fuerte y está bien preparado,

Am                             G
hay que defenderse con toda nuestra unión.

Dm                     A#   
Si a un compañero le estalla algo en sus manos

Am                          G
hay que cerrar filas contra la traición.


PRE-CORO (ritmo de hard-core)
Dm              A#       Am        G
Y ahora con el miedo no veo las banderas.

Dm A# Am 
Ooohhhh 

G
Sigo puño en alto.

A   E (2 VECES, DEJAR SONAR)


A                             E
Y ahora empieza la caza de brujas,

                    A
hablar mal echando mierda,

               E              A            E
no sea que el juego acabe en guerra... en guerra

A  E


FIG. DE BAJO (Dm A# Am G)

VERSO 3 (RITMO REGGAE)

Dm                       A#       
Aún seguimos en pie, rompiendo madrugadas,

   Am                    G
y al amar vamos creando todo el odio que os destruya.

     Dm                             A#       
Nosotros no nos rendimos, aunque ya no salga el Sol

     Am                          G
y la Luna ya no brille esperando la Revolución.


SOLO:
   
   Dm             A#                 Am                     G     
1|-----------------------------------------------------------------------------
2|------------------------------------------------------6-5-5-6-5-5-6-5-5-6-5-5
3|-5h7~~--7--5------------------------5------5-7----5-7------------------------
4|--------------8--7----7h8--5----5-7------7-----------------------------------
5|-----------------------------------------------------------------------------
6|-----------------------------------------------------------------------------

    Dm                            A#                    Am  
1|-----------------11b(12)--10----10~~---------10/11\10----10------------------
2|-/13\----10--13--------------13--------10-13----------13----13-10-------10-10
3|------------------------------------------------------------------12/13------
4|-----------------------------------------------------------------------------
5|-----------------------------------------------------------------------------
6|-----------------------------------------------------------------------------
   
                G                   Dm        A#     Am  G      Dm
1|----------10-11----10-11-13---15--13--11-13-15*----13*p15----17~~~~~~--------
2|-10----13--------------------------------------------------------------------
3|-----------------------------------------------------------------------------
4|-----------------------------------------------------------------------------
5|-----------------------------------------------------------------------------
6|-----------------------------------------------------------------------------

*TREMULEO CON LA PLUMILLA


?FUERA LOS TRAIDORES FUERA DEL MOVIMIENTO?

Dm      A# Am      G
Críticas....... miseria y traición.

Dm      A# Am      G
Críticas....... miseria y traición.

Dm                   A#               
Críticas, críticas, críticas, críticas

  Am          G
Críticas... miseria y traición.

Dm                   A#               
Críticas, críticas, críticas, críticas

  Am          G
Críticas... miseria y traición.


Dm                  A#      Am         G
Y ahora que hoy de pie que veo las banderas.

Dm A# Am 
Ooohhhh

G
Sigo puño en alto.

Fig. 1 (2 veces)   
Sigo puño en alto

FINAL: LA FIG 1 (2 VECES)


ACORDES:

      Dm     A#       Am        G
1|--------------------------------------------
2|----6---------------------------------------
3|----7-------7--------5--------4-------------
4|----7-------8--------7--------5-------------
5|----5-------8--------7--------5-------------
6|------------6--------5--------3-------------


NOTA: CUALQUIER ACLARACION, DUDA, COMENTARIO, CORRECCION, ETC MANDENME UN EMAIL
ADEMÁS DE PROPUESTAS DE QUE ROLAS QUIEREN QUE SUBA DE HARDCORE LIBERTARIO
GRACIAS...(CONTINUARA)
Suggest correction
Give kudos to tab author, rate the tab!
1 2 3 4 5
comments
print report bad tab
guest
You may want to rate the tab now too:
select rating
Wanna post a correction for this tab? Suggest correction