Oops, an error
Loading. Please wait.

Miseria Y Traición Bass

35 views 1 this week
no commentswrite comment
1 2 3 4 5
3 more votes to show rating
add to favorites
×
Save as Personal and add changes to this tab that will be seen only by you. Learn more ›
×
You can save this tab as Personal to edit and correct it or add notes. All changes will be seen only by you. Learn more »
save as personal
new!
launch autoscroll
font size
0
reset
guitar tuner
Autoscroll
slow
fast
+/-
esc
set tempo
stop
introduccion guitarra:

C      A#  A   G
a la segunda y con bateria

parte 1 lento
A||-----3333---------------------
E||---------6666-5555---3333-----    (x3)

en ska parte 2

D||------5----------------
A||----33-3--8----7----5--   (x4)
E||--------66-6-55-5-33-3-

en harcore  rapido parte 3

A||-----333333---------------------
E||-----------666666-555555-333333-   (x2)

parte 1 (x2)

parte 2 (x4)

parte 3 (x2) inmediatamente

E||---5-------0---- (x2)

E||---5555555-8-7-000000000 (x2)

E||---5-------0---- (x2)

solo
G||----------7-5--------------1010----99-------------------|
D||-------------7-5---------88----------77-----------------|
A||----5555-5-------------88--------------77---------------|  (x3)
E||----------------6666-66--------5555------55-3333--111-2-| 

y en la cuarta una sola vez

G||----7-5----------------------|
D||-------7-8-6--7-5-7----------|
A||---5--------8----------------|
E||--------6----5-----3--1111-2-|

solo  (x1)
parte 3 (x1)
parte 2 (x4)
parte 3 (x2)
parte 1 (x4) con las ultimas dos marcando y callando
Suggest correction
Give kudos to tab author, rate the tab!
1 2 3 4 5
comments
print report bad tab
guest
Wanna post a correction for this tab? Suggest correction