Oops, an error
Loading. Please wait.

No Sé Tab

11 views 1 this week
no commentswrite comment
1 2 3 4 5
3 more votes to show rating
add to favorites
launch autoscroll
font size
0
reset
how to read this tab
guitar tuner
Autoscroll
slow
fast
+/-
esc
set tempo
stop
Help us to improve Ultimate-Guitar.com Take our survey!
×
Base 1


e:-------------------------------------------
B:-------------------------------------------
G:------------------------------------------- x2
D:-------------------------------------------
A:--5-5--55---5-5--55---5-55-5-5-5-5--55-----
E:--0-3--33---0-3--33---0-33-0-3-0-3--33-----


 Base 2


e:------------------------------------------
B:------------------------------------------
G:------------------------------------------  x2
D:------------5-55-5-5-5-55-5-5-5-----------
A:--5-55-5-5--0-33-0-3-0-33-0-3-0----55-----
E:--0-33-0-3----------------------3--33-----


(con base 2)
El mono iba caminando
seguia tomando no paraba mas, no se.
el mono iba caminando
seguia tomando no paraba mas, no se.

(con base 1)
no se, no se, no se para donde fue.(x2)


(con base 2)
Duro hombre por dentro
escucha el lamento de su corazón, no se.
duro hombre por dentro
escucha el lamento de su corazón, no se.

(con base 1)
no se, no se, no se para donde fue.(x2)


Seguro que fue pal monte...


     EMPIEZA CON ESTA PARTE RAPIDO

G  (mantiene unos segundos)

                C                               G
El mono iba caminando seguia tomando no paraba mas, no se.(x2)

(con base 1-rapido)
no se, no se, no se, no se,no se para donde fue.(x2)


 base 2(x2)
               rapido
 base 1(x2)


repite estribillo,base 2,base 1 y termina!


espero qe les guste!!
eso es todo!!
gracias!!
Suggest correction
Give kudos to tab author, rate the tab!
1 2 3 4 5
comments
print report bad tab
guest
You may want to rate the tab now too:
select rating
Wanna post a correction for this tab? Suggest correction