Oops, an error
Loading. Please wait.

A Tí Tab

10 views 1 this week
no commentswrite comment
1 2 3 4 5
3 more votes to show rating
add to favorites
×
Save as Personal and add changes to this tab that will be seen only by you. Learn more ›
×
You can save this tab as Personal to edit and correct it or add notes. All changes will be seen only by you. Learn more »
save as personal
new!
launch autoscroll
font size
0
reset
how to read this tab
guitar tuner
Autoscroll
slow
fast
+/-
esc
set tempo
stop
A Ti- Sin Perdón

Intro Arpegiado con uñeta

1||--------4-------------------2----------------2-----0--------5---------|
2||----------5-------------------2------------3-----0------------5-------|
3||------6-----6------------2------2--------2----------------------6-----|
4||----6---------6--------4----------4----0------------------7-------7---|
5||--4-------------4----4--------------4-------------------7-----------7-|
6||-------------------2---------------------------0------5---------------|

1|--------4--------------------2-----------------2-----0--||
2|----------5--------------------2-------------3-----0----||
3|------6-----6-------------2------2---------2------------||
4|----6---------6---------4----------4-----0--------------||
5|--4-------------4-----4--------------4------------------||
6|--------------------2----------------------------0------||

ACORDES VERSOS: A-C#-F#-D-E

DESPUES DEL ULTIMO ? ESTARAS EN MI? VIENE ESTO
UNA GUITARRA HACE ESTO: F#-D RIFF 1

Y LA OTRA ESTO:

 F#-F#-F#-F# F#-F#-F#-F#-F#-F#-F#-D-D-D-D-D-D-D-D-D-D-D-D
1||-------------------------------------------------------||
2||-------------------------------------------------------|| RIFF 1 A
3||------------9------9-----9-----7--------9---7---6-7-6--||
4||-------------------------------7--0-0-0---0---0--------||
5||--/9--9-9-9---9-9----9-9---9---5-----------------------||
6||-------------------------------------------------------||
         .P.M.   P.M    P.M          .P.M.   .   .
GUITARRA 1
1||-----------------------------------------------------------------||
2||-----------------------------------------------------------------|| R X
3||--------------------------7---9----------------------4-----------|| I 2
4||----------7-----9---11-----------------4-----5---7-----7-5-4-----|| F
5||--/9--9-9---9-9---9-----9---9----95-5---5-5---5---5---------5/---|| F
6||-----------------------------------------------------------------|| 2
 GUITARRA 2
1||---------------------------------------------|
2||---------------------------------------------|
3||---------------------------------------------|
4||--7--7-7/9--9-9--9/11--12-12--11-11-11-117--|
5||--X--X-X-X--X-X--X-X----X-X----X--X-X---X-X--|
6||--5--5-5/7--7-7--7/9---10-10---9--9-9---95--|

1|-------------------------------------||
2|-------------------------------------||
3|-------------------------------------||
4|--7--7-7/9--9-9--9/11--11/12--12/14--||
5|--X--X-X-X--X-X--X-X----X-X----X--X--||
6|--5--5-5/7--7-7--7/9----9/10--10/12--||


   ?CADA SEGUNDO DE TI?
1||------------------||       1||------------------------------||
2||------------------||       2||------------------------------|| RIFF 3
3||------------------||  X 4  3||--7-7----6-6----4-4------7-7--|| X 2
4||--X--7--X-X--7-7--||       4||--X-X----X-X----X-X------X-X--||
5||--X--7--X-X--7-7--||       5||--5-5----4-4----2-2------5-5--||
6||--X--5--X-X--5-5--||       6||------------------------------||

?TIEMPO DE ROSAS?
RIFF 4

1||--14--14-14--12--12-12---12-12-12-12-12-12--|
2||--------------------------------------------|
3||--------------------------------------------|
4||--------------------------------------------|
5||--------------------------------------------|
6||--------------------------------------------|

1|--14--14-14--12--12-12---12-12-12-12-12-12--|
2|--------------------------------------------|
3|--------------------------------------------|
4|--------------------------------------------|
5|--------------------------------------------|
6|--------------------------------------------|

1|----14--14-14--12--12-12---12-12-12-12-12-12--14--14-14--/17--17-17--||
2|---------------------------------------------------------------------||
3|---------------------------------------------------------------------||
4|---------------------------------------------------------------------||
5|---------------------------------------------------------------------||
6|---------------------------------------------------------------------||
LOS ACORDES DE ACOMPAÑAMIENTO SON F#-D ( RIFF 4 A )

?CONCÉDEME UN MOMENTO...?

C#-F#-D-E-A-C#-F#-D-E

A-C#-F#-D-E  X 4 (ACAÁ DICE ? TE ANHELARE...?

RIFF 1 Y RIFF 1 A  X2
RIFF 2 Y RIFF 2 A  X2
RIFF 3 X2
RIFF 4 Y RIFF 4 A  X2

TERMINA EN UNA FIGURA BASADA EN EL RIFF 1 A

1||-------------------------------------------||
2||-------------------------------------------||
3||------------9----9--------------9-7-6-7-6--||
4||------7---7---7----7---0--7-0-7------------||
5||--/9----9------9----9----------------------||
6||-------------------------------------------||

ESTE ES EL FIN.(PUTA QUE WEBIE PA´SACAR ESTA CANCIÓN.)
ESTA SE LA DEDICO AL SIN-DI, AL PATO (SINPERDONFANS)
AL JAVIER, A LA xPAMELAxTERRICOLAx
 Y A LOS Y A LAS QUE LES GUSTA SIN PERDÓN.
AH, CUALQUIER DUDA O WEAS RARAS ENVIENMELO AL MAIL.
GOOD-DIE!!!
Suggest correction
Give kudos to tab author, rate the tab!
1 2 3 4 5
comments
print report bad tab
guest
Wanna post a correction for this tab? Suggest correction