Oops, an error
Loading. Please wait.

Lágrimas Del Corazón Bass Tab

2 views 1 this week
no commentswrite comment
1 2 3 4 5
3 more votes to show rating
add to favorites
launch autoscroll
font size
0
reset
guitar tuner
×
Best way to learn
"Lágrimas Del Corazón"
Autoscroll
slow
fast
+/-
esc
set tempo
stop
Esta es la tablatura para bajo per está mucho mejor que la anterior
que esta como el ............

Intro:

G------------------------------------------|
D------------------------------------------|
A-----7---7-8----7-------------------------|
E--5----5------5---5--8-8-8-8-8-7-7-7-7-7--|x4

Verso: 'Divina visión...'

G-----------------------------------------------------------------|
D-----------------------------------------------------------------|
A--3--3-3-3-3-3-3-3-3-3-3-3-3-3-3---------------------------------|
E---------------------------------5--5-5-5-5-5-5-5-5-5-5-5-5-5-5--|
                                                                   x2
G-----------------------------------------------------------------|
D-----------------------------------------------------------------|
A-----------------------------------------------------------------|
E--1--1-1-1-1-1-1-1-1-1-1-1-1-1-1-0--0-0-0-0-0-0-0-0-0-0-0-0-0-0--|

Bridge: 'Aquello es juegos...'

G-------------------------------------|
D------------------3--3-3-3-3-3-3-----|
A--5--5-5-5-5-5-5------------------3--|
E-------------------------------------|x2

Coro: 'El tiempo pasar...'

G------------------------------------------------------|
D----5-----5------5-----5------2-----2------2-----2----|
A--3---3-3---3--2---2-2---2--0---0-0---0--0---0-0---0--|
E------------------------------------------------------|x2

'El tiempo pasó...'

G-----------------------------------------------------------------|
D---------------------------------2--2-2-2-2-2-2-2-2-2-2-2-2-2-2--|
A--3--3-3-3-3-3-3-3-3-3-3-3-3-3-3---------------------------------|
E-----------------------------------------------------------------|
                                                                   x2
G-----------------------------------------------------------------|
D-----------------------------------------------------------------|
A-----------------------------------------------------------------|
E--5--5-5-5-5-5-5-5-5-5-5-5-5-5-5-1--1-1-1-1-1-1-1-1-1-1-1-1-1-1--|

Coro: 'Rios de sangre...'

G------------------------------------------------------|
D----5-----5------5-----5------2-----2------2-----2----|
A--3---3-3---3--2---2-2---2--0---0-0---0--0---0-0---0--|
E------------------------------------------------------|x2

Intermedio: Todo 2 veces

G-----------------------------------------------------------------|
D-----------------------------------------------------------------|
A--3--3-3-3-3-3-3-3-3-3-3-3-3-3-3-3-3-3-3-3-3-3-3-2--2-2-2-2-2-2--|
E-----------------------------------------------------------------|

G-----------------------------------------------------------------|
D-----------------------------------------------------------------|
A--0--0-0-0-0-0-0-0-0-0-0-0-0-0-0-0-0-0-0-0-0-0-0-----------------|
E-------------------------------------------------3--3-3-3-3-3-3--|

G-----------------------------------------------------------------|
D-----------------------------------------------------------------|
A-----------------------------------------------------------------|
E--1--1-1-1-1-1-1-1-1-1-1-1-1-1-1-1-1-1-1-1-1-1-1-1-1-1-1-1-1-1---|

G-----------------------------------------------------------------|
D-----------------------------------------------------------------|
A-----------------------------------------------------------------|
E--3--3-3-3-3-3-3-3-3-3-3-3-3-3-3-3-3-3-3-3-3-3-3-3-3-3-3-3-3-3---|

'El tiempo pasó...'

G-----------------------------------------------------------------|
D---------------------------------2--2-2-2-2-2-2-2-2-2-2-2-2-2-2--|
A--3--3-3-3-3-3-3-3-3-3-3-3-3-3-3---------------------------------|
E-----------------------------------------------------------------|
                                                                   x2
G-----------------------------------------------------------------|
D-----------------------------------------------------------------|
A-----------------------------------------------------------------|
E--5--5-5-5-5-5-5-5-5-5-5-5-5-5-5-1--1-1-1-1-1-1-1-1-1-1-1-1-1-1--|

Coro: 'Rios de sangre...'

G------------------------------------------------------|
D----5-----5------5-----5------2-----2------2-----2----|
A--3---3-3---3--2---2-2---2--0---0-0---0--0---0-0---0--|
E------------------------------------------------------|x2

Termina con un Do:

G-----|
D-----|
A--3--|
E-----|
Suggest correction
Give kudos to tab author, rate the tab!
1 2 3 4 5
comments
print report bad tab
guest
You may want to rate the tab now too:
select rating
Wanna post a correction for this tab? Suggest correction