Oops, an error
Loading. Please wait.

Lágrimas Del Corazón Tab

12 views 1 this week
no commentswrite comment
1 2 3 4 5
3 more votes to show rating
add to favorites
launch autoscroll
font size
0
reset
how to read this tab
guitar tuner
Autoscroll
slow
fast
+/-
esc
set tempo
stop
Help us to improve Ultimate-Guitar.com Take our survey!
×
Aquí está la canción completa para las dos guitarras
obviamente la de arriba es la 1ª y la de abajo la 2ª xD
las quintas estan escritas solo un vez pq me da pajita escribir
toas las veces q se hacen.

Intro: x2

E--------------8---8---7--8--8h10-8-7----------|
B----------------8---8-----------------8/10v---|
G----------------------------------------------|
D----------------------------------------------|
A----------------------------------------------|
E----------------------------------------------|
|                                              |
E----------------------------------------------|
B----------------------------------------------|
G--Pickslide---5-------4-----------------------|
D--------------5-------4-----------------7-----|
A--------------3-------2-----------------7-----|
E----------------------------------------5-----|


E----------------------------------------------|
B----------------------------------------------|
G--------------5-------4-----------------------|
D--------------5-------4-----------------7-----|
A--------------3-------2-----------------7-----|
E----------------------------------------5-----|
|                                              |
E----------------------------------------------|
B----------------------------------------------|
G--------------5---7---9----10---9---7---------|
D--------------x---x---x----x----x---x---7-----|
A--------------3---5---7----8----7---5---7-----|
E----------------------------------------5-----|

Verso: (con Palm Mute) x2

E------------------------------------------------------------------------|
B------------------------------------------------------------------------|
G------------------------------------------------------------------------|
D------2-----3-----5-----3-----2-----------------------------------------|
A--3-3---3-3---3-3---3-3---3-3---3-3------3-----5-----7-----5-----3------|
E-------------------------------------5-5---5-5---5-5---5-5---5-5---5-5--|
                                                                         |
E------------------------------------------------------------------------|
B------------------------------------------------------------------------|
G--5---------------------------------------------------------------------|
D--5----------------------------------7----------------------------------|
A--3----------------------------------7----------------------------------|
E-------------------------------------5----------------------------------|

E------------------------------------------------------------------------|
B------------------------------------------------------------------------|
G------------------------------------------------------------------------| La parte del Mi
D------------------------------------------------------------------------| no la entiendo bien
A------3-----3-----3-----3-----3----------2-----2-----2-----2-----2------| asi que la dejo así
E--1-1---1-1---1-1---1-1---1-1---1-1--0-0---0-0---0-0---0-0---0-0---0-0--|
                                                                         |
E------------------------------------------------------------------------|
B------------------------------------------------------------------------|
G------------------------------------------------------------------------|
D--3----------------------------------2----------------------------------|
A--3----------------------------------2----------------------------------|
E--1----------------------------------0----------------------------------|

'Aquello es juegos de niños...' (x2)

E-------------------------------------------------------|
B-------------------------------------------------------|
G---7-7--9-9--10--12--10--9--7-7--9-9--10--12--10-------|
D---------------------------------------------------10--|
A---------------------------------------------------10--|
E---------------------------------------------------8---|
|                                                       |
E-------------------------------------------------------|
B-------------------------------------------------------|
G---7------------------------10-------------------------|
D---7------------------------10---------------------10--|
A---5------------------------8----------------------10--|
E---------------------------------------------------8---|


Coro: 'El tiempo pasar...' x2
                                                                     x2
E--------------------------------------------------------|--------------------------|
B--------------------------------------------------------|--------------------------|
G------9------9-10-------9---------9-----9-10------10----|----9-----9-10------9-----|
D--10-----10---------10-----10--9-----9---------9------9-|-7-----7---------7-----7--|
A--------------------------------------------------------|--------------------------|
E--------------------------------------------------------|--------------------------|
|                                                        |                          |
E--------------------------------------------------------|--------------------------|
B--------------------------------------------------------|--------------------------|
G--------------------------------------------------------|--------------------------|
D--10---------------------------9------------------------|-7------------------------|
A--10---------------------------9------------------------|-7------------------------|
E--8----------------------------7------------------------|-5------------------------|


'El tiempo pasó...' x2

E---------------------------------------------------------------------|
B---------------------------------------------------------------------|
G--5------------------------------------------------------------------|
D--5------------9-----7-----9-----7-----------------------------------|
A--3--------7-7---7-7---7-7---7-7------3--5--7--5--3-2----2-3----3-5--|
E-------------------------------------------------------1------3------|
|                                                                     |
E---------------------------------------------------------------------|
B---------------------------------------------------------------------|
G--5--------9---------------------------------------------------------|
D--5--------9--------------------------7----------------3-------------|
A--3--------7--------------------------7----------------3-------------|
E--------------------------------------5----------------1-------------|

Coro: x2
                                                                    x2
E--------------------------------------------------------|--------------------------|
B--------------------------------------------------------|--------------------------|
G------9------9-10-------9---------9-----9-10------10----|----9-----9-10------9-----|
D--10-----10---------10-----10--9-----9---------9------9-|-7-----7---------7-----7--|
A--------------------------------------------------------|--------------------------|
E--------------------------------------------------------|--------------------------|
|                                                        |                          |
E--------------------------------------------------------|--------------------------|
B--------------------------------------------------------|--------------------------|
G--------------------------------------------------------|--------------------------|
D--10---------------------------9------------------------|-7------------------------|
A--10---------------------------9------------------------|-7------------------------|
E--8----------------------------7------------------------|-5------------------------|


Intermedio:

E------------------------------------------------------------------|
B------------------------------------------------------------------|
G---5-----------12-------------------------------------------------|
D---5-----------X---------3--2--------3--2------------------5-3-2--|
A---3-----------10--------------3-----------3------2--3--5---------|
E----------------------------------1-----------1-------------------|
|                                                                  |
E------------------------------------------------------------------|
B------------------------------------------------------------------|
G---5--------4-----------------------------------------------------|
D---5--------4--7------5--3------------------------5---------------|
A---3--------2--7------5--3------------------------5---------------|
E---------------5------3--1------------------------3---------------|

La segunda guitarra sigue haciendo: Do Si La Sol Fa Sol (como arriba)

                    x2
E-----------------------------------------------|------------------------------------------|
B-----------------------------------------14B---|---10--13--10-------------10--13--10------|
G--9h10--9------9h10--9------9h10--9--10--------|---------------12--9--12--------------12--|
D-----------10-----------10---------------------|------------------------------------------|
A-----------------------------------------------|------------------------------------------|
E-----------------------------------------------|------------------------------------------|

E---17/19--17---------------------------------------------------------------------------------|
B-------------20--17-20-17--15/17--15---------------------------------------------------------|
G-------------------------------------17--17-14-17---19-17-14-19-17-14-19-17-14-19-17-14-19B--|
D---------------------------------------------------------------------------------------------|
A---------------------------------------------------------------------------------------------|
E---------------------------------------------------------------------------------------------|

'El tiempo pasó...' x2

E---------------------------------------------------------------------|
B---------------------------------------------------------------------|
G--5------------------------------------------------------------------|
D--5------------9-----7-----9-----7-----------------------------------|
A--3--------7-7---7-7---7-7---7-7------3--5--7--5--3-2----2-3----3-5--|
E-------------------------------------------------------1------3------|
|                                                                     |
E---------------------------------------------------------------------|
B---------------------------------------------------------------------|
G--5--------9---------------------------------------------------------|
D--5--------9--------------------------7----------------3-------------|
A--3--------7--------------------------7----------------3-------------|
E--------------------------------------5----------------1-------------|

Coro: x2
                                                                    x2
E--------------------------------------------------------|--------------------------|
B--------------------------------------------------------|--------------------------|
G------9------9-10-------9---------9-----9-10------10----|----9-----9-10------9-----|
D--10-----10---------10-----10--9-----9---------9------9-|-7-----7---------7-----7--|
A--------------------------------------------------------|--------------------------|
E--------------------------------------------------------|--------------------------|
|                                                        |                          |
E--------------------------------------------------------|--------------------------|
B--------------------------------------------------------|--------------------------|
G--------------------------------------------------------|--------------------------|
D--10---------------------------9------------------------|-7------------------------|
A--10---------------------------9------------------------|-7------------------------|
E--8----------------------------7------------------------|-5------------------------|

Al último coro se le agrego esto para terminar:

E-----------------------------------|
B-----------------------------------|
G--10h12--10--9--10h12--10--9-------|
D------------------------------10---|
A-----------------------------------|
E-----------------------------------|

Eso es todo xD
Suggest correction
Give kudos to tab author, rate the tab!
1 2 3 4 5
comments
print report bad tab
guest
You may want to rate the tab now too:
select rating
Wanna post a correction for this tab? Suggest correction