Oops, an error
Loading. Please wait.

Querías Tab

3 views 1 this week
no commentswrite comment
1 2 3 4 5
3 more votes to show rating
add to favorites
launch autoscroll
font size
0
reset
how to read this tab
guitar tuner
×
Best way to learn
"Querías"
Autoscroll
slow
fast
+/-
esc
set tempo
stop
Aquí van algunos arreglos para la transcripción anterior q en general está buena

***Al principio las notas son:

    SI SOL RE LA (RE DO#)
               1ª guitarra

*** Cuando dice: 'y en este lugar...' es así: Sol Si ( Re Do# Si )

*** Después se hace esto:
                             x3
E---------------------------------------------|--------|
B---------------------------------------------|--------|
G---------------------------------------------|--------|
D--------12-------11-------12-------11----12--|--(11)--| (Bend)
A--10-10----10-10----10-10----10-10----10-----|--------|
E---------------------------------------------|--------|

*** Las notas q siguen son: Si Sol

*** Ahora falta el solo:

E--7--7-7-5-3-2--2-2-3-5-3-2-----------7--7-7-5-3-2-------------------|
B----------------------------3--5-(5)----------------3-3--5-(5)-(5)---|
G---------------------------------------------------------------------|
D---------------------------------------------------------------------|
A---------------------------------------------------------------------|
E---------------------------------------------------------------------|

E--(7)-(7)-(7)-(9)-(9)-(9)-(10)-(10)-(10)-(12)-7--7-7-7-5-2-3------------------|
B---------------------------------------------------------------3-3-3-2-2-2----|
G---------------------------------------------------------------------------4--|
D------------------------------------------------------------------------------|
A------------------------------------------------------------------------------|
E------------------------------------------------------------------------------|

Eso es todo
el solo no es difícil así q hay q puro sacarlo

Chaoooooooo
Suggest correction
Give kudos to tab author, rate the tab!
1 2 3 4 5
comments
print report bad tab
guest
You may want to rate the tab now too:
select rating
Wanna post a correction for this tab? Suggest correction